Oops, an error
Loading. Please wait.

Acorazados bass

by Carajo
403 views 1 this week
no commentswrite comment
1 2 3 4 5
3 more votes to show rating
add to favorites
×
Save as Personal and add changes to this tab that will be seen only by you. Learn more ›
×
You can save this tab as Personal to edit and correct it or add notes. All changes will be seen only by you. Learn more »
launch autoscroll
font size
0
reset
guitar tuner
edit
Autoscroll
slow
fast
+/-
esc
set tempo
stop
Hola a todos de nuevo. Aca les dejo este temaso!!!!

Intro Guitarra
El Bajo comienza con la Bateria

Intro y Verso: 00:06   ?Descalzo en las espinas...?
G|------------|------------|
D|------------|------------|
A|--6--3----1-|--6--3----3-| x5
E|------------|------------|

Pre-Coro: 00:39 ?Acorazados, duros, duros en el dolor?
G|-------------------------|--------------------------|
D|-------------------------|--------------------------|
A|--6-6---8-8---3-3--------|--6-6---8-8---------------|     x2
E|-------------------3444--|--------------4-4---46666-|

Coro: 00:52 ?Evitar que el amor...?
G|----------------------------------|
D|----------------------------------|
A|-----------------6666666688888888-| x2
E|-4444444433333333-----------------|

------------------------|
------------------------|
-----------------/6666/-|
-4444444433333333-------|

Intro Guitarra: 01:12
Verso: 01:18 ?El dique q se rompe...?
G|------------|------------|
D|------------|------------|
A|-/6--3----1-|--6--3----3-| x2
E|------------|------------|

Puente 1: 01:31 ?Aguantar y resistir...?
G|------------------------------------
D|------------3-5-6-6-6h5-5h3-5h3-----
A|---3-3--5-6---------------------6-3-
E|------------------------------------

-------------------------------|
------------3-5-6?6h5h6-8-8-8?-|
---3-3--5-6--------------------|   x2
-------------------------------|

Coro: 01:44 ?Evitar que el amor...?

1º Solo: 02:04
G|---------------------------------|
D|---------------------------------|
A|---------------------------------|   x2
E|11-1111--33-3333--44-4444-444444-|

Puente 2: 02:17  ?Inútil es, inútil fue...?
G|---------------------------------
D|---------------------------------
A|---------------------------------
E|11-1111--33-3333--44-4444-444444-


----------------------------------|
----------------------------------|
----------------------------------|
-11-1111--33-3333--66666666666666-|

Pre-Coro: 02:30 ?Acorazados, duros, duros en el dolor?
Coro: 02:43 ?Evitar que el amor...?  (x2)
Final y 2º Solo Guitarra 03:09
G|---------------------------------|
D|---------------------------------|
A|-----------------3-3-3-3-3-3-3-3-|  Hace esto hasta el final
E|-4-4-4-4-4-4-4-4-----------------|

Termina en D#

Espero q les haya gustado
Cualquier cosa  eldelveinty-26@

Aguante Espejismos!!!!

            
            
Suggest correction
Creating personal tab
Creating personal tab
You can edit any tab online and save it as your Personal.

You can edit, replace or remove any tab part or add personal notes – all changes will be seen only by you.

Personal tabs can be accessed anytime from any device, even offline.
Learn more »
Give kudos to tab author, rate the tab!
1 2 3 4 5
comments
print report bad tab
guest
Wanna post a correction for this tab? Suggest correction