Oops, an error
Loading. Please wait.

Acorazados tab

version 1
version 1

Whole song

by Carajo
500 views 1 this week
no commentswrite comment
1 2 3 4 5
3 more votes to show rating
add to favorites
×
Save as Personal and add changes to this tab that will be seen only by you. Learn more ›
×
You can save this tab as Personal to edit and correct it or add notes. All changes will be seen only by you. Learn more »
launch autoscroll
font size
0
reset
how to read this tab
guitar tuner
edit
Autoscroll
slow
fast
+/-
esc
set tempo
stop
Primer solo
Eb  |-------------------------------------||
Bb  |---------------------8--8-9-8--------||
Gb  |-8-5-8-5-7-3--7-5-8---8-------8------||
Db  |-------------------------------------||
Ab  |-------------------------------------||
Eb  |-------------------------------------||

Eb  |-------------------------------------||
Bb  |-------------------------8--8-9-8----||
Gb  |-8-5--8/10-8-7----7-5-8---8-------8--||
Db  |---------------8---------------------||
Ab  |-------------------------------------||
Eb  |-------------------------------------||


Segundo solo
Eb  |------6-----6-------6----------------||
Bb  |-------------------------------------||
Gb  |---7-8---7-8---8-7-8---77787--5-3----||
Db  |-------------------------------------||
Ab  |-------------------------------------||
Eb  |-------------------------------------||


Eb  |------------------6----6------6--------------------------||
Bb  |---------------------------------------------------------||
Gb  |--7-55-75-35--7-8---7-8--8-7-8---787-8/10-10/12-10-88----||
Db  |---------------------------------------------------------||
Ab  |---------------------------------------------------------||
Eb  |---------------------------------------------------------||

      # varias veces
    |-------11------11--------------------||
Bb  |-------------------------------------||
Gb  |-#12-13---#12-13----12-13-12--17*----||  *tira para arriba
Db  |-------------------------------------||
Ab  |-------------------------------------||
Eb  |-------------------------------------||

Eb  |-----------------------------------------------||
Bb  |-----------------------------------------------||
Gb  |-13-1212--10-88--------------------------------||
Db  |------------------121212/13-12-10--12/13/12-10-||
Ab  |-----------------------------------------------||
Eb  |-----------------------------------------------||

Eb  |-------------------------------------||
Bb  |-------------------------------------||
Gb  |-------------------------------------||
Db  |-10/8--10-8----15-13---12/13--1515/17-13-dejar sonando---
Ab  |-------------------------------------||
Eb  |-------------------------------------||

Eb  |-------------------------------------||
Bb  |-------------------------------------||
Gb  |-------------------------------------||
Db  |-------------------------------------||
Ab  |---18-17-15--13--13/15--15/18--------||FINAL
Eb  |-------------------------------------||

buenoo nada no pude sacar lo demas asi k solo sake los solos

je si alguno puede me pasa los versos

y esta en afincion normall no vean esos b

lo transcribi asi de unaa asi k si esta maso me preguntan
espero lo entiendan
califiken cualkier cosa pregunten por el correo
haganlo escuchando el tema asi se dan masomenos cuenta


PARA GRY!! TK

            
            
Suggest correction
Creating personal tab
Creating personal tab
You can edit any tab online and save it as your Personal.

You can edit, replace or remove any tab part or add personal notes – all changes will be seen only by you.

Personal tabs can be accessed anytime from any device, even offline.
Learn more »
Give kudos to tab author, rate the tab!
1 2 3 4 5
comments
print report bad tab
guest
Wanna post a correction for this tab? Suggest correction