Oops, an error
Loading. Please wait.

Algo En Que Creer bass

by Carajo
201 views 1 this week
no commentswrite comment
1 2 3 4 5
3 more votes to show rating
add to favorites
×
Save as Personal and add changes to this tab that will be seen only by you. Learn more ›
×
You can save this tab as Personal to edit and correct it or add notes. All changes will be seen only by you. Learn more »
launch autoscroll
font size
0
reset
guitar tuner
edit
Autoscroll
slow
fast
+/-
esc
set tempo
stop
hola a todos nuevamente !!!
aca les dejo como siempre un temaso de Carajo !
espero q les guste!!


Intro Guitarra
El Bajo comienza con la Bateria

Verso: 00:10   ?Encontrare una razón...?
G|-----------------------------------
D|-----------------------------------
A|--88887777x5x5-?5x5-?3/8x8?-3x3?1/-
E|-----------------------------------

?La cura de las heridas...?
------------------------------|
------------------------------|
--5x5-?-5x5-?3/8x8?-10/3x3?1/-|
------------------------------|

00:29 ?Cuando no quedan...?
G|------------------------------------------|
D|------------------------------------------|
A|-5555555555555555/3/11111111/333315151515-|
E|------------------------------------------|

00:38 ?Paz. No nos traicionemos más...?
G|-------------------------
D|-------------------------
A|--5x5-?-5x5-?3/8x8?-3x3?-
E|-------------------------

?¡No! Nos traicionemos más...?
-------------------------------------------------------|
-------------------------------------------------------|
--88887777x5x5-?5x5-?3/88888888/1010101010101010101010-|
-------------------------------------------------------|

Estribillo:
00:56 ?Tendrás que tener algo en que creer...?
G|-------------------------|
D|---/8----/8--8-----------|
A|-55----55-----555--3-555-|  x2
E|-------------------------|

01:16 ?Tómalo como debe ser?
G|----------------------------------
D|----------------------------------
A|--//5555555588888888/10/333333333-
E|----------------------------------

?Es una prueba de amor...?
-----------------------------------|
-----------------------------------|
--88887777x5x5-?5x5-?3/8x8?-3x3?1/-|
-----------------------------------|

01:33 ?Agradecidos hoy, por cada nuevo amanecer?
G|--------------------------------------
D|--------------------------------------
A|-5555555555555555/3/11111111/33333333-
E|--------------------------------------

----------------------------------------------------|
----------------------------------------------------|
-5555555555555555/3/11111111/1010101010101010101010-|
----------------------------------------------------|

Estribillo:
01:51 ?Tendrás que tener algo en que creer...?
G|-------------------------|
D|---/8----/8--8-----------|
A|-55----55-----555--3-555-|  x2
E|-------------------------|


?Para comprender...?
G|------------------------------|
D|---/8----/8--855555555555555--|
A|-55----55-------------------5-|
E|------------------------------|

Queda la guitarra y después arranca el bajo
02:21
G|-----|-----------------------------|
D|-----|-----------------------------|
A|-6-8-|-5555h85?5555h85-5555h85-6-8-| x2
E|-----|-----------------------------|

?No! No desesperes...?
G|-----------------------------|
D|-----------------------------|
A|-5555h85?5555h85-5555h85-6-8-| x2
E|-----------------------------|

02:41 ?Protector del alma...?
G|-----------|
D|-----------|
A|-5555--555-| x4
E|-----------|

(Silencio)

Estribillo:
02:58 ?Tendrás que tener algo en que creer...?
G|-------------------------|
D|---/8----/8--8-----------|
A|-55----55-----555--3-555-|  x2
E|-------------------------|

?Para comprender...?
G|----------------------------------------
D|---/8----/8--8121212121212121212121212/-
A|-55----55-------------------------------
E|----------------------------------------

-------------------------------|
151515/171717/191919/1515/1313-|
-------------------------------|
-------------------------------|

03:30
G|-----------------------------|
D|-----------------------------|
A|-5555h85?5555h85-5555h85-6-8-| x2
E|-----------------------------|

?No! No desesperes...?
G|-----------------------------|
D|-----------------------------|
A|-5555h85?5555h85-5555h85-6-8-| x2
E|-----------------------------|

Final
G|--------|
D|-----8--|
A|-555-8--|
E|-----6--|


bueh espero q les haya gustado!
cualquier cosa como siempre eldelveinty-26@

chau!
Suggest correction
Creating personal tab
Creating personal tab
You can edit any tab online and save it as your Personal.

You can edit, replace or remove any tab part or add personal notes – all changes will be seen only by you.

Personal tabs can be accessed anytime from any device, even offline.
Learn more »
Give kudos to tab author, rate the tab!
1 2 3 4 5
comments
print report bad tab
guest
Wanna post a correction for this tab? Suggest correction