Oops, an error
Loading. Please wait.

Atrapasueos Tab

1,634 views 1 this week
no commentswrite comment
1 2 3 4 5
3 more votes to show rating
add to favorites
launch autoscroll
font size
0
reset
how to read this tab
guitar tuner
Autoscroll
slow
fast
+/-
esc
set tempo
stop
Help us to improve Ultimate-Guitar.com Take our survey!
×
Author
-------------------------------------------------------------------------------
                             Carajo - Atrapasueños
-------------------------------------------------------------------------------
Tabbed by: nicuq

Afinación: A# F A# D# G C

Intro:
|---------------------------------------|------------------------------------|
|---------------------------------------|------------------------------------|
|----14-14-14-14-14-12-12-12-14-14-14-14|----12-12-12-12-12-10-10-10-9-9-9-10|
|-----0--0--0--0--0--0--0--0--0--0--0--0|-----0--0--0--0--0--0--0--0-0-0-0--0|
|---------------------------------------|------------------------------------|
|0-0------------------------------------|0-0---------------------------------|
 x x                                     x x

|------------------------------------------|------------------------------|
|-------------------------------13-13-13-13|------------------------------|
|----14-14-14-14-14-12-12-12-14-14-14-14-14|----12-12-12-10-10-10-9-9-9-10|
|-----0--0--0--0--0--0--0--0--0------------|-----0--0--0--0--0--0-0-0-0--0|
|------------------------------------------|------------------------------|
|0-0---------------------------------------|0-0---------------------------|
 x x                                        x x

|---------------------------------------|------------------------------------|
|---------------------------------------|------------------------------------|
|----14-14-14-14-14-12-12-12-14-14-14-14|----12-12-12-12-12-10-10-10-9-9-9-10|
|-----0--0--0--0--0--0--0--0--0--0--0--0|-----0--0--0--0--0--0--0--0-0-0-0--0|
|---------------------------------------|------------------------------------|
|0-0------------------------------------|0-0---------------------------------|
 x x                                     x x

|------------------------------------------|------------------------------|
|-------------------------------13-13-13-13|------------------------------|
|----14-14-14-14-14-12-12-12-14-14-14-14-14|----12-12-12-12-12-12-12-12-12|
|-----0--0--0--0--0--0--0--0--0------------|-----0--0--0--0--0--0--0--0--0|
|------------------------------------------|------------------------------|
|0-0---------------------------------------|0-0---------------------------|
 x x                                        x x

Riff 1:
|---------------------------|   |-------------------------|
|---------------------------|   |-------------------------|
|---------------------------|   |-------------------------|
|---------------------------|x3 |-------------------------|
|0-0-5-7-7-0-6-6-0-5-5-0-2-3|   |0-0-5-7-0-0-6-0-3-5-0-2-3|
|0-0-5-7-7-0-6-6-0-5-5-0-2-3|   |0-0-5-7-0-0-6-0-3-5-0-2-3|
  
Riff 2:
|---------------------------|  
|---------------------------|   
|---------------------------|   
|---------------------------|x2
|0-0-5-7-7-0-6-6-0-5-5-0-2-3|   
|0-0-5-7-7-0-6-6-0-5-5-0-2-3|   
                                 
Estrofa:
|---------------------------------------|------------------------------------|
|---------------------------------------|------------------------------------|
|----14-14-14-14-14-12-12-12-14-14-14-14|----12-12-12-12-12-10-10-10-9-9-9-10|
|-----0--0--0--0--0--0--0--0--0--0--0--0|-----0--0--0--0--0--0--0--0-0-0-0--0|
|---------------------------------------|------------------------------------|
|0-0------------------------------------|0-0---------------------------------|
 x x                                     x x

|------------------------------------------|------------------------------|
|-------------------------------13-13-13-13|------------------------------|
|----14-14-14-14-14-12-12-12-14-14-14-14-14|----12-12-12-10-10-10-9-9-9-10|
|-----0--0--0--0--0--0--0--0--0------------|-----0--0--0--0--0--0-0-0-0--0|
|------------------------------------------|------------------------------|
|0-0---------------------------------------|0-0---------------------------|
 x x                                        x x

|------------------------------------------------------------------------|
|------------------------------------------------------------------------|
|----14-14-14-14-14-14-14-14-14-12-12-14-14-17-17-17-17-15-15-15-15-17-15|
|-----0--0--0--0--0--0--0--0--0--0--0--0--0--0--0--0--0--0--0--0--0--0--0|
|------------------------------------------------------------------------|
|0-0---------------------------------------------------------------------|
 x x                                       
|----------------------------------------------------|
|----------------------------------------------------|
|14-14-14-14-14-14-14-15-14-10-10-10-10-9-10-10-10-10|
|-0--0--0--0--0--0--0--0--0--0--0--0--0-0--0--0--0--0|
|----------------------------------------------------|
|----------------------------------------------------|

Estribillo:
|------------------------------------------------------|
|------11-11---------11-11-11---------8-8-------8-8-8-8|
|------10-10---------10-10-10---------7-7-------7-7-7-7|
|8-8-8--8--8-8-8-8-8--8--8--8-5-5-5-5-5-5-5-5-5-5-5-5-5|x2
|8-8-8--8--8-8-8-8-8--8--8--8-5-5-5-5-5-5-5-5-5-5-5-5-5|
|8-8-8--8--8-8-8-8-8--8--8--8-5-5-5-5-5-5-5-5-5-5-5-5-5|

Intermedio:
|------------------------------------------------------------|
|------------------------------------------------------------|
|------7-7-7----7-7-7---10-10-10-------7-7-7----5-5-5---3-3-3|
|------x-x-x----x-x-x----x--x--x-------x-x-x----x-x-x---x-x-x|x2
|------5-5-5----3-3-3----8--8--8-------5-5-5----3-3-3---1-1-1|
|0-0-0-------0-0------0----------0-0-0-------0-0------0------|
 x x x       x x      x          x x x       x x      x
 
|0--5-----5--0--5--------5--5-6-5-------5--5-6-5-------5--5-6-5--------5--5-6-5|
|3----6------3--6------6--------------6--------------6---------------6---------|
|2------7----2--7----7--------------5------------------------------7-----------|
|0-----------------0-------------------------------5-------------8-------------|
|0-----------------------------------------------------------------------------|
|0-----------------------------------------------------------------------------|

Estribillo 2:
|---------------------------------------|
|---------------------------------------|
|----14-14-14-14-14-12-12-12-14-14-14-14|
|-----0--0--0--0--0--0--0--0--0--0--0--0|
|---------------------------------------|
|0-0------------------------------------|
 x x                                     

|-------------------------|
|--------8-8-------8-8-8-8|
|--------7-7-------7-7-7-7|
|5-5-5-5-5-5-5-5-5-5-5-5-5|
|5-5-5-5-5-5-5-5-5-5-5-5-5|
|5-5-5-5-5-5-5-5-5-5-5-5-5|

|------------------------------------------------------|
|------11-11---------11-11-11---------8-8-------8-8-8-8|
|------10-10---------10-10-10---------7-7-------7-7-7-7|
|8-8-8--8--8-8-8-8-8--8--8--8-5-5-5-5-5-5-5-5-5-5-5-5-5|x3
|8-8-8--8--8-8-8-8-8--8--8--8-5-5-5-5-5-5-5-5-5-5-5-5-5|
|8-8-8--8--8-8-8-8-8--8--8--8-5-5-5-5-5-5-5-5-5-5-5-5-5|

Outro:
|---------------------------|   |---------------------|
|---------------------------|   |---------------------|
|---------------------------|   |---------------------|
|---------------------------|x4 |---------------------|
|0-0-5-7-7-0-6-6-0-5-5-0-2-3|   |0-0-5-7-0-0-6-0-3-5\1|
|0-0-5-7-7-0-6-6-0-5-5-0-2-3|   |0-0-5-7-0-0-6-0-3-5\1|
                                 x x     x x

Estructura:
Intro (0:00 - 0:25}
Riff 1 (0:25 - 0:27)
Estofa (0:27 - 1:04)
Estribillo (1:04 - 1:15)
Riff 2 (1:15 - 1:21)
Estrofa (1:21 - 1:47)
Estribillo (1:47 - 1:59)
Intermedio (1:49 - 2:37)
Estribillo 2 (2:37 - 3:03)
Outro (3:03 - 3:22)

| \  slide down
| x  Mute note
===============================================================================
Suggest correction
Give kudos to tab author, rate the tab!
1 2 3 4 5
comments
print report bad tab
guest
You may want to rate the tab now too:
select rating
Wanna post a correction for this tab? Suggest correction