Oops, an error
Loading. Please wait.

De Frente Al Mar tab

by Carajo
242 views 3 this week
no commentswrite comment
1 2 3 4 5
3 more votes to show rating
add to favorites
×
Save as Personal and add changes to this tab that will be seen only by you. Learn more ›
×
You can save this tab as Personal to edit and correct it or add notes. All changes will be seen only by you. Learn more »
launch autoscroll
font size
0
reset
how to read this tab
guitar tuner
edit
Autoscroll
slow
fast
+/-
esc
set tempo
stop
Este tema suena igual al original con el capo en el primer traste.


INTRO: Cadd9
e|---------------|-----------------|--
B|---------------|-----------------|--
G|-------4h5/4---|4/2-2p0----------|--
D|---------------|--------5/3-3/2--|--
A|-3--3----------|-----------------|--
E|---------------|-----------------|--

e--|---------------|---------------------3--3---|
B--|---------------|-0h1p0-1h3p1-3h5p3---3--3---|
G--|-------4h5/4---|---------------------0--0---|
D--|---------------|----------------------------|x4
A--|-3--3----------|----------------------------|
E--|---------------|----------------------------|


e|-------------------|
B|--15-15----13------|
G|--------14----12---|
D|-------------------|x4
A|-------------------|
E|-------------------|

e|-------------------|
B|-----------13------|
G|-----12h14---------|
D|-------------------|x1
A|-------------------|
E|-------------------|

(se repite 2 veces mientras canta)

DE FRENTE AL MAR,
LA LUZ DEL SOL BRILLA EN LAS OLAS,
COLCHON DE SAL,
LA ESPUMA DIBUJANDOSE EN MIS PIES.

LAm   G        Fmaj7
SE FUNDEN A LO LEJOS CIELO Y MAR
LAm   G        Fmaj7
Y UN PERRO CORRE SALPICANDO A TODOS,
LAm   G        Fmaj7
UN LINDO DIA PARA CAMINAR...

e|---------------|-----------------|--
B|---------------|-----------------|--
G|-------4h5/4---|4/2-2p0----------|--
D|---------------|--------5/3-3/2--|--
A|-3--3----------|-----------------|--
E|---------------|-----------------|--

e--|---------------|---------------------3--3---|
B--|---------------|-0h1p0-1h3p1-3h5p3---3--3---|
G--|-------4h5/4---|---------------------0--0---|
D--|---------------|----------------------------|x2
A--|-3--3----------|----------------------------|
E--|---------------|----------------------------|

e|-------------------|
B|--15-15----13------|
G|--------14----12---|
D|-------------------|x4
A|-------------------|
E|-------------------|

e|-------------------|
B|-----------13------|
G|-----12h14---------|
D|-------------------|x1
A|-------------------|
E|-------------------|

Cadd9
DE FRENTE AL MAR,
ATARDECER DE SOL NARANJA,
UN CIELO DE NEON,
SU INMENSIDAD NOS HACE TAN PEQUEÑOS.

LAm   G        Fmaj7
SE FUNDEN A LO LEJOS CIELO Y MAR
LAm   G        Fmaj7
Y UN PERRO CORRE SALPICANDO A TODOS,
LAm   G        Fmaj7
UN LINDO DIA PARA CAMINAR
F          MI        C
SIN MAS RESPONSABILIDAD
          LAm
QUE DISFRUTAR EN SILENCIO,
Fmaj7       MI
MOMENTO PARA CONTEMPLAR.

Solo
Cadd9 (x4)

e|----------|--------------|--------------------|
B|----------|--------------|--------------------|
G|----------|--------------|----------------2-0-|
D|----------|----------3-2-|------------2-0-----|
A|--0-2-3-2-|-0-2-3-2------|----0-2-3-2---------|
E|-3--------|--------------|-2-3----------------|

                                                LAm
e|----------------|-----------|--------------|-0------|
B|----------------|-----------|--------------|--1-----|
G|-5-5--4-4--2-0--|-0-2-0-2---|--------------|---2----|
D|----------------|---------2-|-3-5-3-2-0-2--|----2---|
A|----------------|-----------|------------3-|-----0--|
E|----------------|-----------|--------------|------0-|

LAm G Fmaj7 (x2)


LAm   G        Fmaj7
SE FUNDEN A LO LEJOS CIELO Y MAR
LAm   G        Fmaj7
Y UN PERRO CORRE SALPICANDO A TODOS,
LAm   G        Fmaj7
UN LINDO DIA PARA CAMINAR
F          MI        C
SIN MAS RESPONSABILIDAD
          LAm
QUE DISFRUTAR EN SILENCIO,
Fmaj7        MI             C
EL VIENTO LLEVA NUESTRO ANDAR
          LAm
COMO UN GUARDIAN COMPAÑERO,
Fmaj7        MI
QUIERO FRENAR EL TIEMPO ACA,
Cadd9 (x8)
DE FRENTE AL MAR.


OUTRO:
e|---------------|-----------------|--
B|---------------|-----------------|--
G|-------4h5/4---|4/2-2p0----------|--
D|---------------|--------5/3-3/2--|--
A|-3--3----------|-----------------|--
E|---------------|-----------------|--

e--|---------------|---------------------3--3---|
B--|---------------|-0h1p0-1h3p1-3h5p3---3--3---|
G--|-------4h5/4---|---------------------0--0---|
D--|---------------|----------------------------|x4
A--|-3--3----------|----------------------------|
E--|---------------|----------------------------|


e|--------------------------------3-|
B|--15-15---13-13---12-12---------3-|
G|-------------------------12-12--0-|
D|----------------------------------|x1
A|----------------------------------|
E|----------------------------------|


Recuerden que es con el capo en el primer traste?
VOTEN!!! gracias
Suggest correction
Creating personal tab
Creating personal tab
You can edit any tab online and save it as your Personal.

You can edit, replace or remove any tab part or add personal notes – all changes will be seen only by you.

Personal tabs can be accessed anytime from any device, even offline.
Learn more »
Give kudos to tab author, rate the tab!
1 2 3 4 5
comments
print report bad tab
guest
Wanna post a correction for this tab? Suggest correction