Oops, an error
Loading. Please wait.

El Dedo En La Llaga tab

by Carajo
226 views 1 this week
no commentswrite comment
1 2 3 4 5
3 more votes to show rating
add to favorites
×
Save as Personal and add changes to this tab that will be seen only by you. Learn more ›
×
You can save this tab as Personal to edit and correct it or add notes. All changes will be seen only by you. Learn more »
launch autoscroll
font size
0
reset
how to read this tab
guitar tuner
edit
Autoscroll
slow
fast
+/-
esc
set tempo
stop
Hola..
espero que les sirva, si tiene errores (es posible) no tarden en avisar..
lo saque de oído, y me sonó bastante parecido..
Acá les dejo el SOLO de "EL DEDO EN LA LLAGA"
un tema desgarrador de la banda..

AFINACIÓN Eb (Mib)

6ª Cuerda: Eb
5ª Cuerda: G#
4ª Cuerda: C#
3ª Cuerda: F#
2ª Cuerda: Bb
1ª Cuerda: Eb

Eb|---------------------------------------------------------
Bb|-8-8h10-----------8----8-8h10----------------------------
F#|--------9-----7h9---9v--------9-----7h9-7h9--------------
C#|----------7h9-------------------7h9---------9-10-9-7-5h7-
G#|---------------------------------------------------------
Eb|---------------------------------------------------------

Eb|--------------13------13---13---13-14v-|
Bb|-12-12v-10-10----10-9----9----9--------|
F#|---------------------------------------|
C#|---------------------------------------|
G#|---------------------------------------|
Eb|---------------------------------------|


NOTAS:
v = Vibrato
h = Hammer on


Espero que les haya servido, PURA VIDA!!
PD: AGUANTE BANDA SALVAJE!!!

            
            
Suggest correction
Creating personal tab
Creating personal tab
You can edit any tab online and save it as your Personal.

You can edit, replace or remove any tab part or add personal notes – all changes will be seen only by you.

Personal tabs can be accessed anytime from any device, even offline.
Learn more »
Give kudos to tab author, rate the tab!
1 2 3 4 5
comments
print report bad tab
guest
Wanna post a correction for this tab? Suggest correction