Oops, an error
Loading. Please wait.

La Fuerza Original tab

by Carajo
94 views 3 this week
no commentswrite comment
1 2 3 4 5
3 more votes to show rating
add to favorites
×
Save as Personal and add changes to this tab that will be seen only by you. Learn more ›
×
You can save this tab as Personal to edit and correct it or add notes. All changes will be seen only by you. Learn more »
launch autoscroll
font size
0
reset
how to read this tab
guitar tuner
edit
Autoscroll
slow
fast
+/-
esc
set tempo
stop
Afinacion
1= DO
2= SOL
3= RE#
4= LA#
5= FA
6= LA#

Estructura
¨¨¨¨¨¨¨¨¨¨
Intro       x1
Verso 1     x2
Interlude   x2
Verso 2     x4
Verso 1     x2
Interlude   x2
Estribillo  x3
Fill 1      x1
Break 1     x1
Verso 3     x4
Estribillo  x3
Fill 1      x1
Fill 2      x1
Fill 3      x1
Break 2     x2
Fill 4      x2
Interlude   x1
Verso 3     x1
Estribillo  x6
Fill 1      x1
Fill 2      x1
Fill 5      x1
Break 3     x1

Intro:
|----------------------------------------------------------------
|----------------------------------------------------------------
|----------------------------------------------------------------
|----------------------------------------------------------------
|----------------------------------------------------------------
|--0-0-0-0--7-8-8-8-5-5-3-3h5-5--0-0-0-7-0-0-8-0-0-8h10-0-8-0-7h8-
            . . . . . . .
-----------------------------------------------------------------|
-----------------------------------------------------------------|
-----------------------------------------------------------------|
-----------------------------------------------------------------|
-----------------------------------------------------------------|
-0-0-0-7-0-0-8-0-0-5-0-0-3h5-5--0-0-0-7-0-0-8-0-0-7-0-0-8h10-10--|

Verso 1:
|------------------------------------------------------------------
|------------------------------------------------------------------
|------------------------------------------------------------------
|------------------------------------------------------------------
|------------------------------------------------------------------
|--0-0-0-7-0-0-8-0-0-5-0-0-3h5-5--0-0-0-7-0-0-8-0-0-8h10-0-8-0-7h8-

-----------------------------------------------------------------|
-----------------------------------------------------------------|
-----------------------------------------------------------------|
-----------------------------------------------------------------|
-----------------------------------------------------------------|
-0-0-0-7-0-0-8-0-0-5-0-0-3h5-5--0-0-0-7-0-0-8-0-0-7-0-0-8h10-10--|

Interlude:
|------------------------------------------------5-5-5-5--|
|------------------------------------------------6-6-6-6--|
|------------------------------------------------7-7-7-7--|
|--0---7h8--8--3-3-3-3h5-5-5---0---7h8--8--3-3-3-7-7-7-7--|
|--0---7h8--8--3-3-3-3h5-5-5---0---7h8--8--3-3-3-5-5-5-5--|
|--0---7h8--8--3-3-3-3h5-5-5---0---7h8--8--3-3-3----------|

Verso 2:
|-----------|
|-----------|
|-----------|
|--0-0-0-0--|
|--0-0-0-0--|
|--0-0-0-0--|
   . . .

Estribillo:
|--8--8--8--8--8--8--8--8---------------------------|
|--9--9--9--9--9--9--9--9---------------------------|
|--10-10-10-10-10-10-10-10--------------------------|
|--10-10-10-10-10-10-10-10--------------------------|
|--8--8--8--8--8--8--8--8----5-5-5---5-5-5---5-5----|
|----------------------------------0-------0-----0--|

Fill 1:
|---------------------------|
|---------------------------|
|---------------------------|
|--3-3-3----3-3-3----3-3----|
|---------------------------|
|--------0--------0------0--|

Break 1:
|---------------------5-5-5-5------------------------------------------|
|---------------------6-6-6-6------------------------------------------|
|---------------------7-7-7-7------------------------------------------|
|--0-0-0-0---0-0-0-0--7-7-7-7--0-0-0-0---0-0-0-0----0-0-0-0---0-0-0-0--|
|--0-0-0-0---0-0-0-0--5-5-5-5--0-0-0-0---0-0-0-0----0-0-0-0---0-0-0-0--|
|--0-0-0-0---0-0-0-0-----------0-0-0-0---0-0-0-0----0-0-0-0---0-0-0-0--|
   . . .     . . .             . . .     . . .      . . .     . . .
Verso 3:
|-----------------------------------|
|-----------------------------------|
|-----------------------------------|
|-----------------------------------|
|-----------------------------------|
|--0-0-0-7-0-0-8-0-0-5-0-0-3-3-3h5--|

Fill 2:
|---------------------------|
|---------------------------|
|---------------------------|
|--7-7-7----7-7-7----7-7----|
|---------------------------|
|--------0--------0------0--|

Fill 3:
|----------------------------------------------------------------------|
|----------------------------------------------------------------------|
|----------------------------------------------------------------------|
|--3--0--3--0--3-0-7--0--7--0--10-0-3--0--3--0--3-0-7--0--7--0--10-10--|
|--3--0--3--0--3-0-7--0--7--0--10-0-3--0--3--0--3-0-7--0--7--0--10-10--|
|--3--0--3--0--3-0-7--0--7--0--10-0-3--0--3--0--3-0-7--0--7--0--10-10--|

Break 2:
|---------------------5-5-5-5--|
|---------------------6-6-6-6--|
|---------------------7-7-7-7--|
|--0-0-0-0---0-0-0-0--7-7-7-7--|
|--0-0-0-0---0-0-0-0--5-5-5-5--|
|--0-0-0-0---0-0-0-0-----------|
   . . .     . . .
Fill 4:
|-----------------------------------------------|
|-----------------------------------------------|
|-----------------------------------------------|
|--10-10-10-7-7-7--15-15-15-15-13-13--12-12-12--|
|--10-10-10-7-7-7--15-15-15-15-13-13--12-12-12--|
|--10-10-10-7-7-7--15-15-15-15-13-13--12-12-12--|

Fill 5:
|-------------------------------------|
|-------------------------------------|
|-------------------------------------|
|--3--0--3--0--3-0-7--0--7--0--10-10--|
|--3--0--3--0--3-0-7--0--7--0--10-10--|
|--3--0--3--0--3-0-7--0--7--0--10-10--|

Break 3:
|--------------------------------|
|--------------------------------|
|--------------------------------|
|--0-0-0-0---0-0-0-0----0-0-0-0--|
|--0-0-0-0---0-0-0-0----0-0-0-0--|
|--0-0-0-0---0-0-0-0----0-0-0-0--|
   . . .     . . .

Letra
Buscando energía se aprende al andar,
conciencia tranquila ir superando las pruebas,
el tiempo muestra las señales, claras,
la recompensa es poder avanzar,
todo se reduce a declarar de que lado caminar,
de que lado estar, por donde encontraras la claridad.
se mueve en lo alto, la fuerza original,
el polen sagrado, el amor en su mas puro estado.
no sera facil llegar hasta ahi,
es mas dificil de lo que pensas,
borrando tu pasado no deseado una pluma blanda
en angel se convertira, por donde encontraras la claridad.
sabemos que hay una razon por la cual estamos aca
lo cierto es que hay una razon ¡la fuerza original!
dejamos ver lo que queremos ser
es mucho mas todo lo que escondes
si no te abris nunca lo comprenderas
¡se trata de ser y no de aparentar!
sabemos que hay una razon por la cual estamos aca
lo cierto es que hay una razom ¡la fuerza original!
por donde encontraras la claridad
sabemos que hay una razon por la cual estamos aca
lo cierto es que hay una razom, en el alma ¡la fuerza original!

BuEnO aCá LeS dEjO lA fUeRzA oRiGiNaL cOn La AfInAcIóN
oRiGiNaL y ToDo. EsTá PeRfeCtA y SuEnA rE bIeN.
AgUaNtE cArAjO!!!!!!
CuAlQuIeR cOsA aHi ArRiBa EsTa Mi MaIl. SuErTe...
FlOr Te Re AmO, sOs Mi ToDo, PaRa EsO vIvO. PaRa VoS~
Suggest correction
Creating personal tab
Creating personal tab
You can edit any tab online and save it as your Personal.

You can edit, replace or remove any tab part or add personal notes – all changes will be seen only by you.

Personal tabs can be accessed anytime from any device, even offline.
Learn more »
Give kudos to tab author, rate the tab!
1 2 3 4 5
comments
print report bad tab
guest
Wanna post a correction for this tab? Suggest correction