Oops, an error
Loading. Please wait.

Libres tab

version 1
version 1

Whole song

Interactive

by Carajo
902 views 3 this week
no commentswrite comment
1 2 3 4 5
3 more votes to show rating
add to favorites
×
Save as Personal and add changes to this tab that will be seen only by you. Learn more ›
×
You can save this tab as Personal to edit and correct it or add notes. All changes will be seen only by you. Learn more »
launch autoscroll
font size
0
reset
how to read this tab
guitar tuner
edit
Autoscroll
slow
fast
+/-
esc
set tempo
stop
afinacion : drop c (con la sexta en DO )

intro:

tambien enves de hacer :
 G|-5-5-0-5-0-5-5----------7-5-0-5-0-5-5----|

 pueden mutear la cuerda y no tocarla al aire
 yo hago eso , fijense como les suene mas
 a ustedes ..


D|------------------------------------------|
A|------------------------------------------|
F|------------------------------------------|
C|------------------------------------------|
G|-5-5-0-5-0-5-5----------7-5-0-5-0-5-5-----|
D|-----------------4h5p45---------------4b--|

D|-------------------------------------------|
A|-------------------------------------------|
f|-------------------------------------------|
C|-------------------------------------------|
G|5-5-0-5-0-5-5-----------7-5-0-5-0-5-5------|
D|-----------------4h5p45---------------12/--|


D|--------------------------------------|
A|--------------------------------------|
F|--------------------------------------|
C|-7-7----------------------------------|
G|-5-5-0-5-0-5-5---------7-5-0-5-0-5-5--|
D|---------------4h5p45-----------------|

D|---------------------------------------------------|
A|---------------------------------------------------|
F|---------------------------------------------------|
C|----7-7--------------------------------------6666--|
G|----5-5-0-5-0-5-5----------------------------4444--|
D|-9/-----------------4h5p45--999-0-333-0-111-0------|


D|-------------------------------------------|
A|-------------------------------------------|
F|-------------------------------------------|
C|-7-7---7---7-7---------9-7---7---7-7-------|
G|-5-5-0-5-0-5-5---------7-5-0-5-0-5-5--4b*--|
D|----------------4h5p45---------------------|


D|---------------------------------------------|
A|---------------------------------------------|
F|---------------------------------------------|
C|--7-7---7---7-7--------9-7---7---7-7---------|
G|--5-5-0-5-0-5-5--------7-5-0-5-0-5-5---------|
D|-----------------4h5p45----------------4b----|


D|-----------------------------------------|
A|-----------------------------------------|
F|-----------------------------------------|
C|-7-7---7-7-7-7--------9-7---7---7-7------|
G|-5-5-0-5-0-5-5--------7-5-0-5-0-5-5------|
D|---------------4h5p45---------------4b*--|


D|-------------------------------------------------|
A|-------------------------------------------------|
F|-------------------------------------------------|
C|--7-7---7---7-7---------------------------6666---|
G|--5-5-0-5-0-5-5---------------------------4444---|
D|----------------4h5p45--999-0-333-0-111----------|

                   aca y en el resto del tema donde
                   se repita esto tambien se puede
                   mutar y obviar la nota al aire

DONDE NO HAY LIBERTAD, DONDE EL ODIO ES LA LEY;
ESTE IMPERIO VA A CAER, SUELTATE YA!!!
NO HAY VERDAD EN SU PODER,
NO HAY DONDE PERTENECER!


D|--------------------|
A|--------------------|
F|-7-7----------------|
C|-6-6--1-1--1h3-0----|
G|-5-5--1-1--1h3-0----|
D|------1-1--1h3-0----|


TODO LO QUE POSEAS TE QUERRÁ DOMINAR,


D|-------------------------------------------------------------------|
A|-------------------------------------------------------------------|
F|-10-10-10-10-10-10-10-10-10-10---12--14-14-14-14-14-14-14-14-14----|
C|-10-10-10-10-10-10-10-10-10-10---12--14-14-14-14-14-14-14-14-14----|
G|-8--8--8--8--8--8--8--8--8--8----10--12-12-12-12-12-12-12-12-12----|
D|-8--8--8--8--8--8--8--8--8--8----10--12-12-12-12-12-12-12-12-12----|

ROBANDO TU LIBERTAD

D|-------------------------------------------------------------------|
A|-------------------------------------------------------------------|
F|-10-10-10-10-10-10-10-10-10-10---12--14-14-14-14-14-14-14-14-14----|
C|-10-10-10-10-10-10-10-10-10-10---12--14-14-14-14-14-14-14-14-14----|
G|-8--8--8--8--8--8--8--8--8--8----10--12-12-12-12-12-12-12-12-12----|
D|-8--8--8--8--8--8--8--8--8--8----10--12-12-12-12-12-12-12-12-12----|


D|----------|
A|----------|
F|----------|
C|-1---1----|
G|-1---1----|
D|-1---1----|


TESOROS QUE EN LA TIERRA MUY PRONTO PASARÁN,


D|-------------------------------------------------------------------|
A|-------------------------------------------------------------------|
F|-10-10-10-10-10-10-10-10-10-10---12--14-14-14-14-14-14-14-14-14----|
C|-10-10-10-10-10-10-10-10-10-10---12--14-14-14-14-14-14-14-14-14----|
G|-8--8--8--8--8--8--8--8--8--8----10--12-12-12-12-12-12-12-12-12----|
D|-8--8--8--8--8--8--8--8--8--8----10--12-12-12-12-12-12-12-12-12----|

NO TE DARÁN LIBERTAD, NO!!!
D|-------------------------------------------------------------------|
A|-------------------------------------------------------------------|
F|-10-10-10-10-10-10-10-10-10-10---12--14-14-14-14-14-14-14-14-14----|
C|-10-10-10-10-10-10-10-10-10-10---12--14-14-14-14-14-14-14-14-14----|
G|-8--8--8--8--8--8--8--8--8--8----10--12-12-12-12-12-12-12-12-12----|
D|-8--8--8--8--8--8--8--8--8--8----10--12-12-12-12-12-12-12-12-12----|


D|----------|
A|----------|
F|----------|
C|-1---1----|
G|-1---1----|
D|-1---1----|


D|-----------------------------------------------|
A|-----------------------------------------------|
F|-----------------------------------------------|
C|-----------------------------------------------|
G|-5-5-0-5-0-5-5----------7-5-0-5-0-5-5--4b*-----|
D|-----------------4h5p45------------------------|


D|------------------------------------------------------------|
A|------------------------------------------------------------|
F|---------------------------------------------------6-6-6-6--|
C|---------------------------9-9-9-9-3-3-3-3-1-1-1-1-6-6-6-6--|
G|--5-5-0-5-0-5-5------------9-9-9-9-3-3-3-3-1-1-1-1-4-4-4-4--|
D|-----------------4h5p45----9-9-9-9-3-3-3-3-1-1-1-1----------|


ES TU MONEDA EL VENENO IMPUESTO,
TU RELIGIÓN ES MATAR!
DEGENERANDO LA VITAL CREACIÓN,
COMO GANADO, NOS QUIEREN MARCAR

D|---------------------------------|
A|---------------------------------|
F|---------------------------------|
C|------------9p7------------------|
G|-0-0-0-0-0-------5h7p5p0---------|
D|-0-0-0-0-0-----------------------|
                                                la marca de
                                                 satan ! .
D|-----------------------------------------------------------|
A|-----------------------------------------------------------|
F|-----------------------------------------------------------|
C|--9p7------------9p7------------9p7------------------------| x2
G|-------5h7p5p0--------5h7p5p0--------5h7p5p0----000-000----|
D|------------------------------------------------000-000----|


ESTE NO ES MI LUGAR,
DEBEMOS ESCAPAR, UNÁMONOS!!!
UNA TRINCHERA ES EL TEMPLO DE TU SER,
FORTALECIENDOLO!

D|-----------------------------------------------------------|
A|-----------------------------------------------------------|
F|-----------------------------------------------------------|
C|--9p7------------9p7------------9p7------------------------|
G|-------5h7p5p0--------5h7p5p0--------5h7p5p0----000-000----|
D|------------------------------------------------000-000----|


TODO LO QUE POSEAS TE QUERRÁ DOMINAR,


D|----------------------------------------------------------------|
A|----------------------------------------------------------------|
F|-10-10-10-10-10-10-10-10-10-10---12--14-14-14-14-14-14-14-14-14-|
C|-10-10-10-10-10-10-10-10-10-10---12--14-14-14-14-14-14-14-14-14-|
G|-8--8--8--8--8--8--8--8--8--8----10--12-12-12-12-12-12-12-12-12-|
D|-8--8--8--8--8--8--8--8--8--8----10--12-12-12-12-12-12-12-12-12-|

ROBANDO TU LIBERTAD , NO!

D|----------------------------------------------------------------|
A|----------------------------------------------------------------|
F|-10-10-10-10-10-10-10-10-10-10---12--14-14-14-14-14-14-14-14-14-|
C|-10-10-10-10-10-10-10-10-10-10---12--14-14-14-14-14-14-14-14-14-|
G|-8--8--8--8--8--8--8--8--8--8----10--12-12-12-12-12-12-12-12-12-|
D|-8--8--8--8--8--8--8--8--8--8----10--12-12-12-12-12-12-12-12-12-|


D|----------|
A|----------|
F|----------|
C|-1---1----|
G|-1---1----|
D|-1---1----|


TESOROS QUE EN LA TIERRA MUY PRONTO PASARÁN,


D|----------------------------------------------------------------|
A|----------------------------------------------------------------|
F|-10-10-10-10-10-10-10-10-10-10---12--14-14-14-14-14-14-14-14-14-|
C|-10-10-10-10-10-10-10-10-10-10---12--14-14-14-14-14-14-14-14-14-|
G|-8--8--8--8--8--8--8--8--8--8----10--12-12-12-12-12-12-12-12-12-|
D|-8--8--8--8--8--8--8--8--8--8----10--12-12-12-12-12-12-12-12-12-|

NO TE DARÁN LIBERTAD,
D|----------------------------------------------------------------|
A|----------------------------------------------------------------|
F|-10-10-10-10-10-10-10-10-10-10---12--14-14-14-14-14-14-14-14-14-|
C|-10-10-10-10-10-10-10-10-10-10---12--14-14-14-14-14-14-14-14-14-|
G|-8--8--8--8--8--8--8--8--8--8----10--12-12-12-12-12-12-12-12-12-|
D|-8--8--8--8--8--8--8--8--8--8----10--12-12-12-12-12-12-12-12-12-|


D|----------|
A|----------|
F|----------|
C|-1---1----|
G|-1---1----|
D|-1---1----|


D|------------------------------------------|
A|------------------------------------------|
F|------------------------------------------|
C|-7-7------------------7-7-7---------------|
G|-5-5-0-5-0-5-5--------5-5-5-0-5-0-5-5-----|
D|---------------4h5p45-----------------12/-|


D|-----------------------------------------------|
A|-----------------------------------------------|
F|-----------------------------------------------|
C|---7-7------------------------------------6666-|
G|---5-5-0-5-0-5-5--------------------------4444-|
D|----------------4h5p45--999-0-333-0-111--------|


D|---------------------------------------------|
A|---------------------------------------------|
F|---------------------------------------------|
C|---------------------------------------------|
G|-5-5-0-5-0-5-5---------7-5-0-5-0-5-5--4b*----|
D|----------------4h5p45-----------------------|

D|---------------------------------------|
A|---------------------------------------|
F|---------------------------------------|
C|---------------------------------------|
G|-5-5-0-5-0-5-5-------------------------|
D|---------------4h5p45--9999--3333-1111-|


SOMOS SOLDADOS? SOMOS ESCLAVOS?
PELEANDO LA LIBERTAD!


D|--------------------------------------|
A|--------------------------------------|
F|--------------------------------------|
C|--------------------------------------|
G|-5-5-0-5-0-5-5--------7-5-0-5-0-5-5---|
D|---------------4h5p45-----------------|


D|------------------------------------------------------|
A|------------------------------------------------------|
F|------------------------------------------------------|
C|------------------------------------------------------|
G|------5-5-0-5-0-5-5-----------------------------------|
D|--4b----------------4h5p45--9999--3333--1111----------|


-TE EQUIVOCAS SI VAS EN SON DE PAZ!
LA GUERRA MISMA ESTA ACA!
NOS QUIEREN VER BESAR SUS PIES,
ANTES PREFIERO LA MUERTE!

D|-------------------------------------|
A|-------------------------------------|
F|-------------------------------------|
C|-------------------------------------|
G|-5-5-0-5-0-5-5--------7-5-0-5-0-5-5--|
D|---------------4h5p45----------------|

D|------------------------------------------------|
A|------------------------------------------------|
F|------------------------------------------------|
C|-------------------------------------------6666-|
G|----5-5-0-5-0-5-5--------------------------4444-|
D|4b----------------4h5p45--999-0-333-0-111-0-----|


TODO LO QUE POSEAS TE QUERRÁ DOMINAR,


D|----------------------------------------------------------------|
A|----------------------------------------------------------------|
F|-10-10-10-10-10-10-10-10-10-10---12--14-14-14-14-14-14-14-14-14-|
C|-10-10-10-10-10-10-10-10-10-10---12--14-14-14-14-14-14-14-14-14-|
G|-8--8--8--8--8--8--8--8--8--8----10--12-12-12-12-12-12-12-12-12-|
D|-8--8--8--8--8--8--8--8--8--8----10--12-12-12-12-12-12-12-12-12-|

ROBANDO TU LIBERTAD

D|----------------------------------------------------------------|
A|----------------------------------------------------------------|
F|-10-10-10-10-10-10-10-10-10-10---12--14-14-14-14-14-14-14-14-14-|
C|-10-10-10-10-10-10-10-10-10-10---12--14-14-14-14-14-14-14-14-14-|
G|-8--8--8--8--8--8--8--8--8--8----10--12-12-12-12-12-12-12-12-12-|
D|-8--8--8--8--8--8--8--8--8--8----10--12-12-12-12-12-12-12-12-12-|


D|----------|
A|----------|
F|----------|
C|-1---1----|
G|-1---1----|
D|-1---1----|


TESOROS QUE EN LA TIERRA MUY PRONTO PASARÁN,


D|-------------------------------------------------------------------|
A|-------------------------------------------------------------------|
F|-10-10-10-10-10-10-10-10-10-10---12--14-14-14-14-14-14-14-14-14----|
C|-10-10-10-10-10-10-10-10-10-10---12--14-14-14-14-14-14-14-14-14----|
G|-8--8--8--8--8--8--8--8--8--8----10--12-12-12-12-12-12-12-12-12----|
D|-8--8--8--8--8--8--8--8--8--8----10--12-12-12-12-12-12-12-12-12----|

NO TE DARÁN LIBERTAAAAD !
D|----------------------------------------------------------------|
A|----------------------------------------------------------------|
F|-10-10-10-10-10-10-10-10-10-10---12--14-14-14-14-14-14-14-14-14-|
C|-10-10-10-10-10-10-10-10-10-10---12--14-14-14-14-14-14-14-14-14-|
G|-8--8--8--8--8--8--8--8--8--8----10--12-12-12-12-12-12-12-12-12-|
D|-8--8--8--8--8--8--8--8--8--8----10--12-12-12-12-12-12-12-12-12-|


D|--------------------------|
A|--------------------------|
F|--------------------------|
C|-1-1-x-1-1-x-1-1--0-------|
G|-1-1-x-1-1-x-1-1--0-------|
D|-1-1-x-1-1-x-1-1--0-------|


hay partes donde estan las dos violas juntas ,
quisas por eso les suene meido raro ..
pero dentro de todo esta bien ..
 es el primer tema qe saco entero a oido de este disco
perdonen las imperfecciones , califiquen :D

si quieren algun tema pidanlo a : juan,stanley@

            
            
Suggest correction
Creating personal tab
Creating personal tab
You can edit any tab online and save it as your Personal.

You can edit, replace or remove any tab part or add personal notes – all changes will be seen only by you.

Personal tabs can be accessed anytime from any device, even offline.
Learn more »
Give kudos to tab author, rate the tab!
1 2 3 4 5
comments
print report bad tab
guest
Wanna post a correction for this tab? Suggest correction