Oops, an error
Loading. Please wait.

Pura Vida tab

by Carajo
311 views 1 this week
no commentswrite comment
1 2 3 4 5
3 more votes to show rating
add to favorites
×
Save as Personal and add changes to this tab that will be seen only by you. Learn more ›
×
You can save this tab as Personal to edit and correct it or add notes. All changes will be seen only by you. Learn more »
launch autoscroll
font size
0
reset
how to read this tab
guitar tuner
edit
Autoscroll
slow
fast
+/-
esc
set tempo
stop
Afinación:
1-----C
2-----G
3-----EB
4-----Bb
5-----F
6-----Bb

Estructura:
Riff 1        x4
Riff 2        x2
Riff 3        x4
Corte         x6
Riff 1        x4
Riff 2        x2
Corte         x2
Fill          x1
Estribillo    x1
Riff 1        x4
Riff 2        x2
Corte         x2
Fill          x1
Estribillo    x1
Break         x11
Break 2       x1
Riff 1        x8
Riff 2        x2
Corte         x4
Fill          x1
Estribillo 2  x1
Break         x7
Break 2       x1


Riff 1:(un poco de delay)
|----------------------------|
|--3-3--4-4-3--3-4--4-1-1-1--|
|----------------------------|
|----------------------------|
|----------------------------|
|----------------------------|

Riff 2: (algo de delay)
|--------------------------------------------------------------|
|-8-8-8-8-8-8-7--7-7h8p7----11-11-11-11-11-11-10--10-10h11p10--|
|--------------------------------------------------------------|
|--------------------------------------------------------------|
|--------------------------------------------------------------|
|--------------------------------------------------------------|

Riff 3:(delay)
|--10-10--11-11-10--10-11--11-8-8-8--|
|------------------------------------|
|------------------------------------|
|------------------------------------|
|------------------------------------|
|------------------------------------|

Corte:
|-------------------------------------|
|-------------------------------4-----|
|-------------------------------5-----|
|--1--0--1--0---3h4-4--1--0--1--5--4--|
|--1--0--1--0---3h4-4--1--0--1--3--4--|
|--1--0--1--0---3h4-4--1--0--1-----4--|

Fill:
|-------------|
|-------------|
|-------------|
|--1-1-1-1-1--|
|--1-1-1-1-1--|
|--1-1-1-1-1--|

Estribillo:
|-------------------------------------------------
|--3-----------------------3----------------------
|--2------------------2-3--2------------------3---
|--0--1-1-0--0-3-4--4-2-3--0--1-1-0--0-3-4--4-3-1-
|--0--1-1-0--0-3-4--4-0-1--0--1-1-0--0-3-4--4-1-1-
|--0--1-1-0--0-3-4--4------0--1-1-0--0-3-4--4---1-

---------------------------------------------|
-3-----------------------3-------------------|
-2------------------2-3--2-------------------|
-0--1-1-0--0-3-4--4-2-3--0--1-1-0--0-3-4--4--|
-0--1-1-0--0-3-4--4-0-1--0--1-1-0--0-3-4--4--|
-0--1-1-0--0-3-4--4------0--1-1-0--0-3-4--4--|

Break:
|------------------------------|
|------------------------------|
|------------------------------|
|--7h8-8-8--7h8-8-8--8-3--4p0--|
|--7h8-8-8--7h8-8-8--8-3--4p0--|
|--7h8-8-8--7h8-8-8--8-3--4p0--|

Break 2:
|-------------------------|
|-------------------------|
|-------------------------|
|--7h8-8-8--7h8-8-8--8-3--|
|--7h8-8-8--7h8-8-8--8-3--|
|--7h8-8-8--7h8-8-8--8-3--|

Estribillo:
|-------------------------------------------------|
|--3-----------------------3----------------------|
|--2------------------2-3--2------------------3---| x3
|--0--1-1-0--0-3-4--4-2-3--0--1-1-0--0-3-4--4-3-1-|
|--0--1-1-0--0-3-4--4-0-1--0--1-1-0--0-3-4--4-1-1-|
|--0--1-1-0--0-3-4--4------0--1-1-0--0-3-4--4---1-|

|-----------------------------------------------|
|-3-----------------------3---------------------|
|-2------------------2-3--2---------------------| x1
|-0--1-1-0--0-3-4--4-2-3--0--1-1-0--0-3-4--4-3--|
|-0--1-1-0--0-3-4--4-0-1--0--1-1-0--0-3-4--4-3--|
|-0--1-1-0--0-3-4--4------0--1-1-0--0-3-4--4-3--|


Letra:

Ven, siente el lado puro de la fuerza
manteniendo viva nuestra llama.
Encendidos en el fuego azul,
para que nunca nos dejemos vencer,
para ser libres.
Pura vida, guerrera desnuda.
Pura vida, mordiendo la piel!
Hay muchas sensaciones que desconocemos,
que duermen en la sangre
y que se pudren solas!
Todos pueden conocerlas ya!,
si buscamos en el corazón,
nacen de adentro!
Pura vida, guerrera desnuda.
Pura vida, mordiendo la piel!
¡Pura!¡Vida!
una lengua de fuego sobre la carne,
alas que crecen desde el alma,
quema las emociones atadas,
empuja el dolor buscando la paz!

FlOr Te Re AmO.
SoS rE CaLlA JaJaJa
SeGuI AsI
Suggest correction
Creating personal tab
Creating personal tab
You can edit any tab online and save it as your Personal.

You can edit, replace or remove any tab part or add personal notes – all changes will be seen only by you.

Personal tabs can be accessed anytime from any device, even offline.
Learn more »
Give kudos to tab author, rate the tab!
1 2 3 4 5
comments
print report bad tab
guest
Wanna post a correction for this tab? Suggest correction