Oops, an error
Loading. Please wait.

Sacate La Mierda tab

version 3
version 3

Whole song

Interactive

by Carajo
136 views 1 this week
no commentswrite comment
1 2 3 4 5
3 more votes to show rating
add to favorites
×
Save as Personal and add changes to this tab that will be seen only by you. Learn more ›
×
You can save this tab as Personal to edit and correct it or add notes. All changes will be seen only by you. Learn more »
launch autoscroll
font size
0
reset
how to read this tab
guitar tuner
edit
Autoscroll
slow
fast
+/-
esc
set tempo
stop
-NOTA-: 100% correcto!posta!!!!
Nada de se "parece" o poner es el k "usa" tery
Pero despues nada k ver je
Me kedo re bien el tema sakenlo
Y califiken!
Me base en una ke ya estaba pero
Re! incompleta

Haganlo escuchando el tema asi se guian
En las veces k se hace cada parte
Yo masomenos puse en algunos cualkier cosa
Agreguen msn

Este va para toda la vagancia! Presente! je
para mi banda! Punkreas!
Y para gry ke la re amo!
Ke le gusta carajo tanto
Como ami! Je TE AMO!
Adios espero les sirva!

SACATE LA MIERDA!
intro

(Sin anestesia la rebelión despierta?)
D|--1717-----------------|
A|------1717-1818--------|
F|----------------1717---|   x3
C|-----------------------|
G|-----------------------|
C|-----------------------|

D|--1717-----------------|
A|------1717-1818--2020--|
F|-----------------------|
C|-----------------------|
G|-----------------------|
C|-----------------------|

D|--xxxxxxxxxx-----------|
A|--xxxxxxxxxx-----------|
F|--9999999910-----------| final intro
C|-----------------------|
G|-----------------------|
C|-----------------------|

Precoro (..sin verguenza..)
D|-------------------------------------|
A|-------------------------------------|
F|-------------------------------------|
C|--7-7----0-2-0-0----2-2-2---3-3-3----| x4
G|--7-7----0-2-0-0----2-2-2---3-3-3----|
C|--7-7----0-2-0-0----2-2-2---3-3-3----|

Coro (dejando escapar..)
D|-------------------------------------|
A|-------------------------------------|
F|-------------------------------------|
C|--7-7---2---2-2-2---3-3---0---0-0-0--|
G|--7-7---2---2-2-2---3-3---0---0-0-0--|
C|--7-7---2---2-2-2---3-3---0---0-0-0--|

D|-------------------------------------|
A|-------------------------------------|
F|-------------------------------------|
C|--7-2/3-------------------------------|
G|--7-2/3-------------------------------|
C|--7-2/3-------------------------------|


Interlude
(...Pudriendo nuestra fe...   la sociedad es individual?)
D|-------------------------------------|
A|-------------------------------------|
F|--9-9/10/12-12/14/12?12/9?9/10 9/7/5-5/7/5---------|  x3
C|-------------------------------------|
G|-------------------------------------|
C|-------------------------------------|

(rota kedo nuestra historia!)
D|--1717-----------------|
A|------1717-1818--------|
F|----------------1717---|   x3
C|-----------------------|
G|-----------------------|
C|-----------------------|
(Como kuesta mantener la  speranza cuando la comida
No alcanza!)
D|--1717-----------------|
A|------1717-1818--2020--|
F|-----------------------|
C|-----------------------|
G|-----------------------|
C|-----------------------|
(Salimos a buscar lo knadie nos da!)
D|--xxxxxxxxxx-----------|
A|--xxxxxxxxxx-----------|
F|--9999999910-----------|
C|-----------------------|
G|-----------------------|
C|-----------------------|

Precoro (..sin verguenza..)
D|-------------------------------------|
A|-------------------------------------|
F|-------------------------------------|
C|--7-7----0-2-0-0----2-2-2---3-3-3----|x4
G|--7-7----0-2-0-0----2-2-2---3-3-3----|
C|--7-7----0-2-0-0----2-2-2---3-3-3----|

Coro (dejando escapar..)
D|-------------------------------------|
A|-------------------------------------|
F|-------------------------------------|
C|--7-7---2---2-2-2---3-3---0---0-0-0--|
G|--7-7---2---2-2-2---3-3---0---0-0-0--|
C|--7-7---2---2-2-2---3-3---0---0-0-0--|

D|-------------------------------------|
A|-------------------------------------| x2
F|-------------------------------------|
C|--7---2/3-333-22/33-3/0--------------|
G|--7---2/3-333-22/33-3/0--------------|
C|--7---2/3-333-22/33-3/0--------------|


(Nuestra fe!) (muerta!!)
D|-------------------------------------|
A|-------------------------------------|
F|-------------------------------------|
C|--7777--7-7--7--7-7-0-7--------------|
G|--7777--7-7--7--7-7-0-7--------------|
C|--7777--7-7--7--7-7-0-7--------------|
pm  ....       .

(?NOOOOO!!!)     ( nada mas nada massss keda x esperar!)
D|-------------------------------------------|
A|-------------------------------------------|
F|-----2-------4-------5-------5--------------|
C|---2--2-----4-4----5--5----5--5-------------| varias veces
G|--0-3------2-5----3-7-----3-5--5------------|
C|-------------------------------------------|
(Naaaaaaa naaada keda por esperar!!) POR ESPERAR!


Coro (dejando escapar todo el odio ke vaa!)
D|-------------------------------------|
A|-------------------------------------|
F|-------------------------------------|
C|--7-7---2---2-2-2---3-3---0---0-0-0--|
G|--7-7---2---2-2-2---3-3---0---0-0-0--|
C|--7-7---2---2-2-2---3-3---0---0-0-0--|

D|-------------------------------------|
A|-------------------------------------| x2
F|-------------------------------------|
C|--7---2/3-333-22/33-3/0--------------|
G|--7---2/3-333-22/33-3/0--------------|
C|--7---2/3-333-22/33-3/0--------------|


(de fondo se escucha esto escuchen el tema para hacerlo
Bien si lo kieren hacer je o una segunda viola)
D|-------------------------------------|
A|-5555666888--5555666888--------------|
F|-------------------------------------|
C|-------------------------------------|
G|-------------------------------------|
C|-------------------------------------|

D|-----------------------------------------------------|
A|-17171717181818202020---171717151515131313-----------|
F|-----------------------------------------------------|
C|-----------------------------------------------------|
G|-----------------------------------------------------|
C|-----------------------------------------------------|


FINAL
(Nuestra fe muerta!)             (NO!!!)
D|-------------------------------------|
A|-------------------------------------|
F|-------------------------------------|
C|--7777--7-7--7--7-7-0-7--------------|
G|--7777--7-7--7--7-7-0-7--------------|
C|--7777--7-7--7--7-7-0-7--------------|

(BASTA sacate la mierda!   BASTA! SACATE LA mierda!
HUEJ!)  (je)
D|-------------------------------------|
A|-------------------------------------|
F|-------------------------------------|
C|--1111--1-1--1--1-1-0-1--------------|
G|--1111--1-1--1--1-1-0-1--------------|
C|--1111--1-1--1--1-1-0-1--------------|
.

Me cope con las acotaciones porke kedo
Re bien el tema! je
CALIFIKEN!

            
            
Suggest correction
Creating personal tab
Creating personal tab
You can edit any tab online and save it as your Personal.

You can edit, replace or remove any tab part or add personal notes – all changes will be seen only by you.

Personal tabs can be accessed anytime from any device, even offline.
Learn more »
Give kudos to tab author, rate the tab!
1 2 3 4 5
comments
print report bad tab
guest
Wanna post a correction for this tab? Suggest correction