Oops, an error
Loading. Please wait.

Sacate La Mierda tab

version 4
version 4

Whole song

Interactive

by Carajo
117 views 3 this week
no commentswrite comment
1 2 3 4 5
3 more votes to show rating
add to favorites
×
Save as Personal and add changes to this tab that will be seen only by you. Learn more ›
×
You can save this tab as Personal to edit and correct it or add notes. All changes will be seen only by you. Learn more »
launch autoscroll
font size
0
reset
how to read this tab
guitar tuner
edit
Autoscroll
slow
fast
+/-
esc
set tempo
stop
tablatura hecha por Jose Miguel Bolivar pranster18@ 

Esto si es verdadero nu-metal en español....
Aqui esta la respuesta a los e-mail de los panas que pedian el tema en afinacion 
estandar.

H: HAMMER MARTILLO  (toca una nota y de inmediato pulsa la que le sique con el dedo.
p:pull off  (martillo de reversa)
/:slide _(deslizate de una nota a otra)
 

efectos
delay-eco no muy cargado (150 mms)
distorcion algo saturada si puedes añadele flanger para hacerlo mas interesante.


INTRO Y VERSO 1

E|--15-15-15-15-------------------------------------------------------------|
B|--------------15-15-15-15-15-16-16-16-16--13-13-13-13---------------------|
G|--------------------------------------------------------------------------|
D|--------------------------------------------------------------------------| 
A|--------------------------------------------------------------------------|
E|--------------------------------------------------------------------------|

PRE-CORO 
sin verguenza..
      G    C   D  D#
E|---------------------------------------------------------|
B|---------------------------------------------------------|
G|------5555-77-8888---------------------------------------|
D|--55--5555-77-8888---------------------------------------|
A|--55--3333-55-6666---------------------------------------|
E|--33-----------------------------------------------------|

CORO
DEJANDO ESCAPAR.............   TODO EL ODIO QUE VA...............
       G      D     D#     C    G     D    G#?  D#   C
E|--------------------------------------------------------------|
B|--------------------------------------------------------------|
G|----------7777--8888--5555--------7777--88--8888-5555---------|
D|--5555----7777--8888--5555--5555--7777--66--8888-5555---------|
A|--5555----5555--6666--3333--5555--5555--66--6666-3335---------|
E|--3333----------------------3333------------------------------|

pre verso
la sociedad es individual...................
E|-------------------------------------|
B|----------4--5/6--4-3-4/3H4-11H13-11-|
G|--2H3---3----------------------------|  X 3
D|-------------------------------------|
A|-------------------------------------|
E|-------------------------------------|

verso 2

E|--15-15-15-15-------------------------------------------------------------|
B|--------------15-15-15-15-15-16-16-16-16--13-13-13-13---------------------|
G|--------------------------------------------------------------------------|
D|--------------------------------------------------------------------------|
A|--------------------------------------------------------------------------|
E|--------------------------------------------------------------------------|

PRE-CORO
sin verguenza..
      G    C   D  D#
E|---------------------------------------------------------|
B|---------------------------------------------------------|
G|------5555-77-8888---------------------------------------|
D|--55--5555-77-8888---------------------------------------|
A|--55--3333-55-6666---------------------------------------|
E|--33-----------------------------------------------------|

CORO
DEJANDO ESCAPAR.............   TODO EL ODIO QUE VA...............
       G      D     D#     C    G     D    G#?  D#   C
E|--------------------------------------------------------------|
B|--------------------------------------------------------------|
G|----------7777--8888--5555--------7777--88--8888-5555---------|
D|--5555----7777--8888--5555--5555--7777--66--8888-5555---------|
A|--5555----5555--6666--3333--5555--5555--66--6666-3335---------|
E|--3333----------------------3333------------------------------|


      G    
NUESTRA FE.......MUERTA                  
E|----------------------|
B|----------------------|
G|----------------------|
D|---5-5--++--5--5-5----|   X4
A|---5-5--++--5--5-5----|
D|---3-3--++--3--3-3----|

NADA MAS .....
                            
E||-----------------------------------------------------|
B||-----------------------------------------------------|
G||-----4---4---4---6---6---6---8---8---6-9---8---------| X 3
D||---6---6---6---8---8---8---9---9---9-----9-----------|
A||-----------------------------------------------------|
D||-----------------------------------------------------|

                            
E||-------------------------------------------------------|
B||-------------------------------------------------------|
G||-----4---4---4---6---6---6---8---8---6/9---8-88--------| X 1
D||---6---6---6---8---8---8---9---9---9-----9---99--------|
A||------------------------------------(MAS RAPIDO)-------|
D||-------------------------------------------------------|

CORO
DEJANDO ESCAPAR.............   TODO EL ODIO QUE VA...............
       G      D     D#     C    G     D    G#?  D#   C
E|--------------------------------------------------------------|
B|--------------------------------------------------------------|
G|----------7777--8888--5555--------7777--88--8888-5555---------|
D|--5555----7777--8888--5555--5555--7777--66--8888-5555---------|
A|--5555----5555--6666--3333--5555--5555--66--6666-3335---------|
E|--3333----------------------3333------------------------------|

      G    
NUESTRA FE.......MUERTA                  
E|----------------------|
B|----------------------|
G|----------------------|
D|---5-5--++--5--5-5----|   
A|---5-5--++--5--5-5----|
D|---3-3--++--3--3-3----|
                                                     
LA LETRA:
sin anestesia la rebelion despierta
en la calle se manifiesta
la paciencia ya se acabo y nace la violencia
miro la tv y odio lo que veo
hay que meterlos a todos presos
tanta propaganda para la corrupcion 
asesinando al pueblo

mierda todo se degenera
la vieja trampa nos espera
sea como sea hay que escaparle, 
a toda esta manga de charlatanes
mierda este caos apesta
y solo nuestra muerte alimenta
puM-pu,hechando mal al que protesta 
por sacar todo el dolor afuera

sin verguenza
sin verguenza....

dejando escapar todo el odio que va........ pudriendo nuestra fe
pudriendo nuestra fe.

la sociedad es individual
la libertad es conicional
trabajar por una puta limosna
la economia nos robo la vida

rota quedo nuestra historia
se va con pena y sin gloria
y como cuesta mantener la esperanza
cuando la comida no alcanza
ya no hay nada mas que esperar la honestidad no existe mas
basta de cagarnos la cara
salimos a buscar lo que nadie nos da

sin verguenza
sin verguenza...

dejando escapar todo el odio que va........ pudriendo nuestra fe
dejando escapar todo el odio que va........ pudriendo nuestra fe

nuestra fe, muerta
nuestra fe,yahhhhhhhhhhhhhhhhhh.....


nada mas, nada mas, queda por esperar..
nada mas que esperar
nada mas que esperar
nada mas que esperar
nada mas, nada mas, queda por esperar..

dejando escapar todo el odio que va........ pudriendo nuestra fe  x 2
dejando escapar todo el odio que va x 3
pudriendo nuestra fe

nuestra fe...muerta 
nuestra fe  nooooooooooooooooooo.
basta sacate la mierda
basta sacate la mierda...............

SI ERES DE VENEZUELA PTO LA CRUZ Y QUIERES FORMAR UNA BANDA 
ESCRIBE A MI E-MAIL O AL 04167812754.
SALUDOS A LOS PANAS DE LA UDO.......

            
            
Suggest correction
Creating personal tab
Creating personal tab
You can edit any tab online and save it as your Personal.

You can edit, replace or remove any tab part or add personal notes – all changes will be seen only by you.

Personal tabs can be accessed anytime from any device, even offline.
Learn more »
Give kudos to tab author, rate the tab!
1 2 3 4 5
comments
print report bad tab
guest
Wanna post a correction for this tab? Suggest correction