Oops, an error
Loading. Please wait.

Sacte La Mierda Tab

1,166 views 1 this week
4 commentsread comments
1 2 3 4 5
accurate
x 4
add to favorites
launch autoscroll
font size
0
reset
how to read this tab
guitar tuner
Tab Pro tools
  • play this tab
  • loop segment
  • change instrument
  • show fretboard
  • metronome
×
Best way to learn
"Sacte La Mierda"
Autoscroll
slow
fast
+/-
esc
set tempo
stop
Contributor
Difficulty
intermediate
/Carajo
/Sacate la mierda


e|-------------------------------------------------|
B|-15-15-15-15-------------------------------------|
G|-------------15-15-15-15-16-16-16-16-------------|x4
D|-------------------------------------15-15-15-15-|
A|-------------------------------------------------|
E|-------------------------------------------------|
comments
print report bad tab
4 comments total. Showing first comments.
0 reply
guitarhead93 wrote on February 14 2008, 01:52 pm

no entiendo como aceptan esta basura de tab i yo envio millones de tabs precisos y los niegan

0 reply
eXtreS wrote on February 17 2008, 03:54 pm

InTrO: Distorcion + Delay

E------------------------------------------------------------------|
B-(5)-(5)-(5)-(5)--(7)-(7)-(7)-(7)---------------------------------|
G----------------------------------(5)-(5)-(5)-(5)--(7)-(7)-(7)-(7)|
D------------------------------------------------------------------|
A------------------------------------------------------------------|
E------------------------------------------------------------------|

0 reply
eXtreS wrote on February 17 2008, 03:54 pm

InTrO: Distorcion + Delay

E------------------------------------------------------------------|
B-(5)-(5)-(5)-(5)--(7)-(7)-(7)-(7)---------------------------------|
G----------------------------------(5)-(5)-(5)-(5)--(7)-(7)-(7)-(7)|
D------------------------------------------------------------------|
A------------------------------------------------------------------|
E------------------------------------------------------------------|

I want to post or [tab]
guest
You may want to rate the tab now too:
select rating
Please do not post tabs as comments. Select "correction" instead!