Oops, an error
Loading. Please wait.

Caramelldansen tab

version 2
version 2

Whole song

Interactive

5,840 views 9 this week
no commentswrite comment
1 2 3 4 5
3 more votes to show rating
add to favorites
×
Save as Personal and add changes to this tab that will be seen only by you. Learn more ›
×
You can save this tab as Personal to edit and correct it or add notes. All changes will be seen only by you. Learn more »
launch autoscroll
font size
0
reset
how to read this tab
guitar tuner
edit
Autoscroll
slow
fast
+/-
esc
set tempo
stop
Author
Difficulty
-------------------------------------------------------------------------------
                             CARAMELLDANSEN
-------------------------------------------------------------------------------
Tabbed by: Aznangel
This is my first tab, so it may be a bit rough on a few parts. Email djk9000@gmail.com 
corrections or comments


Tab is for the synth and the vocals (the annoying parts of the song)

Tuning: Standard

Intro
Intro part 2
Verse
Verse 2
Chorus
Oohs
Verse
Verse 2
Chorus
Intro part 2 synth
Bridge
Oohs
Chorus
Chorus


Intro (part 1)
e|-2-4-6-7-9-9-9--9-11-9--9-11-9-7-6-6-6-7-6-2-------------------------------|
B|---------------------------------------------------------------------------|
G|---------------------------------------------------------------------------|
D|---------------------------------------------------------------------------|
A|---------------------------------------------------------------------------|
E|---------------------------------------------------------------------------|

x2


Intro (part 2) - not as sure for this one part
e|---------------------------------------------------------------------------|
B|-11-11-11-12----11-9-9-9-11---9-7-7-7-9---9-7-7-7-6-7-9--------------------|
G|-------------11-------------8-----------6----------------------------------|
D|---------------------------------------------------------------------------|
A|---------------------------------------------------------------------------|
E|---------------------------------------------------------------------------|

e|-------------------------9-------------------------------------------------|
B|-11-11-11-12----11-9-9-9-----9-7-7-7-9---9-7-7-7-9---9-7-7-7---------------|
G|-------------11------------8-----------6-----------6-----------------------|
D|---------------------------------------------------------------------------|
A|---------------------------------------------------------------------------|
E|---------------------------------------------------------------------------|

Fade and lead into vocals


Verse 1
   Vi und-ra-rar ni re-do alt vara med
e|---------------------------------------------------------------------------|
B|---------------------------------------------------------------------------|
G|-11--11-11-11-11--11-11-13-15-15-------------------------------------------|
D|---------------------------------------------------------------------------|
A|---------------------------------------------------------------------------|
E|---------------------------------------------------------------------------|

   Ar-mar-na up-p  nu ska ni fa se
e|---------------------------------------------------------------------------|
B|---------------------------------------------------------------------------|
G|-11-11-11-11-11--11-11-15-13-11--------------------------------------------|
D|---------------------------------------------------------------------------|
A|---------------------------------------------------------------------------|
E|---------------------------------------------------------------------------|

   Kom ig-jen Hvem som helst kan vara med
e|---------------------------------------------------------------------------|
B|---------------------------------------------------------------------------|
G|----13---------------------11----------------------------------------------|
D|-15----11---11-11-11-13-15----13-11----------------------------------------|
A|---------------------------------------------------------------------------|
E|---------------------------------------------------------------------------|


Prechorus
   So ror pa er-a  fot-ter  Ooh-a-a!
e|---------------------------------------------------------------------------|
B|---------------------------------------------------------------------------|
G|-11-11-11-11-11--11-11-13-15-15--------------------------------------------|
D|---------------------------------------------------------------------------|
A|---------------------------------------------------------------------------|
E|---------------------------------------------------------------------------|

  Och vic-ka er-a hof-ter Ooh-la-la!
e|---------------------------------------------------------------------------|
B|---------------------------------------------------------------------------|
G|-11-11-11-11-11--11-11-18-16-15--------------------------------------------|
D|---------------------------------------------------------------------------|
A|---------------------------------------------------------------------------|
E|---------------------------------------------------------------------------|

  Gjör som vi  Till den-na me-lo-di
e|---------------------------------------------------------------------------|
B|---------------------------------------------------------------------------|
G|-11-13----------------15-13-11---------------------------------------------|
D|-------11----11-11-11------------------------------------------------------|
A|---------------------------------------------------------------------------|
E|---------------------------------------------------------------------------|


Transition
  Ooh-wahh-ahh-wahh-ah-ah!
e|---------------------------------------------------------------------------|
B|---------------------------------------------------------------------------|
G|-11-13-11-15-13-11---------------------------------------------------------|
D|---------------------------------------------------------------------------|
A|---------------------------------------------------------------------------|
E|---------------------------------------------------------------------------|


Chorus
  Dan-sa med oss Klap-pa er-a hän-der
e|---------------------------------------------------------------------------|
B|---------------------------------------------------------------------------|
G|----15-13-11--13-11-13-11-13-15--------------------------------------------|
D|-11------------------------------------------------------------------------|
A|---------------------------------------------------------------------------|
E|---------------------------------------------------------------------------|

  Gjör som vi gjör Ta nagrå steg at vanster
e|---------------------------------------------------------------------------|
B|---------------------------------------------------------------------------|
G|----15-13-11--11-13-11-13-15-13-11-----------------------------------------|
D|-13------------------------------------------------------------------------|
A|---------------------------------------------------------------------------|
E|---------------------------------------------------------------------------|

  Lyss-na och lar Mis-sa in-te chan-sen
e|---------------------------------------------------------------------------|
B|-----------------------------11--------------------------------------------|
G|----15-13-11--13-11-13-11-13-----------------------------------------------|
D|-11------------------------------------------------------------------------|
A|---------------------------------------------------------------------------|
E|---------------------------------------------------------------------------|

  Nu ar vi har med Ca-ra-mell-dan-sen!
e|---------------------------------------------------------------------------|
B|-14-12-11------------------------------------------------------------------|
G|----------11--11-13-13-15-13-11--------------------------------------------|
D|---------------------------------------------------------------------------|
A|---------------------------------------------------------------------------|
E|---------------------------------------------------------------------------|


Ooh's
how can you lyric this...
e|---------------------------------------------------------------------------|
B|---------------------------------------------------------------------------|
G|-13-13--13-15----------13-13--13-15----------------------------------------|
D|--------------11-11-----------------11-11--13-11---------------------------|
A|---------------------------------------------------------------------------|
E|---------------------------------------------------------------------------|

e|---------------------------------------------------------------------------|
B|---------------------------------------------------------------------------|
G|-15-15--15-18-15-13----13-13--13-15----------------------------------------|
D|------------------------------------11-11--13-11---------------------------|
A|---------------------------------------------------------------------------|
E|---------------------------------------------------------------------------|


Verse 2
  Det blir en sensation over alt forstås
e|---------------------------------------------------------------------------|
B|---------------------------------------------------------------------------|
G|-11--11-11-11-11--11-11-13-15-15-------------------------------------------|
D|---------------------------------------------------------------------------|
A|---------------------------------------------------------------------------|
E|---------------------------------------------------------------------------|

   Pa fester kommer alla att slap-pa loss
e|---------------------------------------------------------------------------|
B|---------------------------------------------------------------------------|
G|-11-11-11-11-11--11-11-15-13-11--------------------------------------------|
D|---------------------------------------------------------------------------|
A|---------------------------------------------------------------------------|
E|---------------------------------------------------------------------------|

   Kom ig-jen Nu tar vi ste-gen o-mig-jen
e|---------------------------------------------------------------------------|
B|---------------------------------------------------------------------------|
G|----13---------------------11----------------------------------------------|
D|-15----11---11-11-11-13-15----13-11----------------------------------------|
A|---------------------------------------------------------------------------|
E|---------------------------------------------------------------------------|


Prechorus
   So ror pa er-a  fot-ter  Ooh-a-a!
e|---------------------------------------------------------------------------|
B|---------------------------------------------------------------------------|
G|-11-11-11-11-11--11-11-13-15-15--------------------------------------------|
D|---------------------------------------------------------------------------|
A|---------------------------------------------------------------------------|
E|---------------------------------------------------------------------------|

  Och vic-ka er-a hof-ter Ooh-la-la!
e|---------------------------------------------------------------------------|
B|---------------------------------------------------------------------------|
G|-11-11-11-11-11--11-11-18-16-15--------------------------------------------|
D|---------------------------------------------------------------------------|
A|---------------------------------------------------------------------------|
E|---------------------------------------------------------------------------|

  Gjör som vi  Till den-na me-lo-di
e|---------------------------------------------------------------------------|
B|---------------------------------------------------------------------------|
G|-11-13----------------15-13-11---------------------------------------------|
D|-------11----11-11-11------------------------------------------------------|
A|---------------------------------------------------------------------------|
E|---------------------------------------------------------------------------|


Transition
   So come on
e|---------------------------------------------------------------------------|
B|---------------------------------------------------------------------------|
G|-15-15-13------------------------------------------------------------------|
D|---------------------------------------------------------------------------|
A|---------------------------------------------------------------------------|
E|---------------------------------------------------------------------------|


Chorus
  Dan-sa med oss Klap-pa er-a hän-der
e|---------------------------------------------------------------------------|
B|---------------------------------------------------------------------------|
G|----15-13-11--13-11-13-11-13-15--------------------------------------------|
D|-11------------------------------------------------------------------------|
A|---------------------------------------------------------------------------|
E|---------------------------------------------------------------------------|

  Gjör som vi gjör Ta nagrå steg at vanster
e|---------------------------------------------------------------------------|
B|---------------------------------------------------------------------------|
G|----15-13-11--11-13-11-13-15-13-11-----------------------------------------|
D|-13------------------------------------------------------------------------|
A|---------------------------------------------------------------------------|
E|---------------------------------------------------------------------------|

  Lyss-na och lar Mis-sa in-te chan-sen
e|---------------------------------------------------------------------------|
B|-----------------------------11--------------------------------------------|
G|----15-13-11--13-11-13-11-13-----------------------------------------------|
D|-11------------------------------------------------------------------------|
A|---------------------------------------------------------------------------|
E|---------------------------------------------------------------------------|

  Nu ar vi har med Ca-ra-mell-dan-sen!
e|---------------------------------------------------------------------------|
B|-14-12-11------------------------------------------------------------------|
G|----------11--11-13-13-15-13-11--------------------------------------------|
D|---------------------------------------------------------------------------|
A|---------------------------------------------------------------------------|
E|---------------------------------------------------------------------------|


Synth (same as intro part 2)
e|---------------------------------------------------------------------------|
B|-11-11-11-12----11-9-9-9-11---9-7-7-7-9---9-7-7-7-6-7-9--------------------|
G|-------------11-------------8-----------6----------------------------------|
D|---------------------------------------------------------------------------|
A|---------------------------------------------------------------------------|
E|---------------------------------------------------------------------------|

e|-------------------------9-------------------------------------------------|
B|-11-11-11-12----11-9-9-9-----9-7-7-7-9---9-7-7-7-9---9-7-7-7---------------|
G|-------------11------------8-----------6-----------6-----------------------|
D|---------------------------------------------------------------------------|
A|---------------------------------------------------------------------------|
E|---------------------------------------------------------------------------|


Bridge
  Dan-sa med oss Klap-pa er-a hän-der
e|---------------------------------------------------------------------------|
B|---------------------------------------------------------------------------|
G|-15-15-15-15--13-11-13-11-13-15--------------------------------------------|
D|---------------------------------------------------------------------------|
A|---------------------------------------------------------------------------|
E|---------------------------------------------------------------------------|

   Gjör som vi gjör Ta na-grå steg at van-ster
e|---------------------------------------------------------------------------|
B|---------------------------------------------------------------------------|
G|-11-11-11-11--11-------------11-13-----------------------------------------|
D|-----------------13-13-15-15-----------------------------------------------|
A|---------------------------------------------------------------------------|
E|---------------------------------------------------------------------------|

   Lyss-na och lar Mis-sa in-te chan-sen
e|---------------------------------------------------------------------------|
B|----------------------14-14-12---------------------------------------------|
G|-15-15-15-15-15-13-13----------15-13---------------------------------------|
D|---------------------------------------------------------------------------|
A|---------------------------------------------------------------------------|
E|---------------------------------------------------------------------------|

   Nu ar vi har med Ca-ra-mell-dan-sen!
e|---------------------------------------------------------------------------|
B|----------------14-14------------------------------------------------------|
G|-11-11-11-11-11-------11-11-11---------------------------------------------|
D|---------------------------------------------------------------------------|
A|---------------------------------------------------------------------------|
E|---------------------------------------------------------------------------|


Ooh's
e|---------------------------------------------------------------------------|
B|---------------------------------------------------------------------------|
G|-13-13--13-15----------13-13--13-15----------------------------------------|
D|--------------11-11-----------------11-11--13-11---------------------------|
A|---------------------------------------------------------------------------|
E|---------------------------------------------------------------------------|

e|---------------------------------------------------------------------------|
B|---------------------------------------------------------------------------|
G|-15-15--15-18-15-13----13-13--13-15----------------------------------------|
D|------------------------------------11-11--13-11---------------------------|
A|---------------------------------------------------------------------------|
E|---------------------------------------------------------------------------|


Chorus
  Dan-sa med oss Klap-pa er-a hän-der
e|---------------------------------------------------------------------------|
B|---------------------------------------------------------------------------|
G|----15-13-11--13-11-13-11-13-15--------------------------------------------|
D|-11------------------------------------------------------------------------|
A|---------------------------------------------------------------------------|
E|---------------------------------------------------------------------------|

  Gjör som vi gjör Ta nagrå steg at vanster
e|---------------------------------------------------------------------------|
B|---------------------------------------------------------------------------|
G|----15-13-11--11-13-11-13-15-13-11-----------------------------------------|
D|-13------------------------------------------------------------------------|
A|---------------------------------------------------------------------------|
E|---------------------------------------------------------------------------|

  Lyss-na och lar Mis-sa in-te chan-sen
e|---------------------------------------------------------------------------|
B|-----------------------------11--------------------------------------------|
G|----15-13-11--13-11-13-11-13-----------------------------------------------|
D|-11------------------------------------------------------------------------|
A|---------------------------------------------------------------------------|
E|---------------------------------------------------------------------------|

  Nu ar vi har med Ca-ra-mell-dan-sen!
e|---------------------------------------------------------------------------|
B|-14-12-11------------------------------------------------------------------|
G|----------11--11-13-13-15-13-11--------------------------------------------|
D|---------------------------------------------------------------------------|
A|---------------------------------------------------------------------------|
E|---------------------------------------------------------------------------|


Chorus one last time
  Dan-sa med oss Klap-pa er-a hän-der
e|---------------------------------------------------------------------------|
B|---------------------------------------------------------------------------|
G|----15-13-11--13-11-13-11-13-15--------------------------------------------|
D|-11------------------------------------------------------------------------|
A|---------------------------------------------------------------------------|
E|---------------------------------------------------------------------------|

  Gjör som vi gjör Ta nagrå steg at vanster
e|---------------------------------------------------------------------------|
B|---------------------------------------------------------------------------|
G|----15-13-11--11-13-11-13-15-13-11-----------------------------------------|
D|-13------------------------------------------------------------------------|
A|---------------------------------------------------------------------------|
E|---------------------------------------------------------------------------|

  Lyss-na och lar Mis-sa in-te chan-sen
e|---------------------------------------------------------------------------|
B|-----------------------------11--------------------------------------------|
G|----15-13-11--13-11-13-11-13-----------------------------------------------|
D|-11------------------------------------------------------------------------|
A|---------------------------------------------------------------------------|
E|---------------------------------------------------------------------------|

  Nu ar vi har med Ca-ra-mell-dan-sen!
e|---------------------------------------------------------------------------|
B|-14-12-11------------------------------------------------------------------|
G|----------11--11-13-13-15-13-11--------------------------------------------|
D|---------------------------------------------------------------------------|
A|---------------------------------------------------------------------------|
E|---------------------------------------------------------------------------|

==================================END===========================================

            
            
Suggest correction
Creating personal tab
Creating personal tab
You can edit any tab online and save it as your Personal.

You can edit, replace or remove any tab part or add personal notes – all changes will be seen only by you.

Personal tabs can be accessed anytime from any device, even offline.
Learn more »
Give kudos to tab author, rate the tab!
1 2 3 4 5
comments
print report bad tab
guest
You may want to rate the tab now too:
select rating
Wanna post a correction for this tab? Suggest correction