Oops, an error
Loading. Please wait.

El Último Polvo Tab

version 2
version 2

Whole song

Interactive

1,915 views 1 this week
no commentswrite comment
1 2 3 4 5
please rate
add to favorites
launch autoscroll
font size
0
reset
how to read this tab
guitar tuner
Autoscroll
slow
fast
+/-
esc
set tempo
stop
Help us to improve Ultimate-Guitar.com Take our survey!
×
Author
Difficulty
intermediate
INTRO y verso

e|5-----6-----5-----8-----6-----5-----6-----5p6h5---|
B|--6-----6-----6-----6-----6-----6-----6-----6-----|
G|----5-----5-----5-----5-----5-----5-----5-----5---|
D|--------------------------------------------------|
A|--------------------------------------------------|
E|--------------------------------------------------|  se repite 4 veces

Cuando todo acabó, cuando todo se habló
Cuando por fin entiendes que el pasado pasó
Visto desde el final, no estuvimos tan mal
Los momentos hermosos siempre perdurarán
Entiende por favor que aunque sienta dolor
Desde que te conozco soy un hombre mejor

-------------------------------------------------------------------------

Precoro
e|-------------------------------------------|  :dejar sonar
B|-------------------------------------------|
G|-----5:--3:--------------------------------|
D|-3:--5:--3:--------------------------------|
A|-3:--3:--1:--------------------------------|
E|-1:----------------------------------------|

Creí que indudablemente podía botarte de repente
Fíjate si estaba equivocado
Siendo tú quien me ha botado

-------------------------------------------------------------------------

Coro: (distorsión)
e|--------------------------------------------|
B|--------------------------------------------|
G|-----------------------7-7-7-7-7--5-5-5-5-5-|
D|-3-3-3-3-3--7-7-7-7-7--7-7-7-7-7--5-5-5-5-5-|
A|-3-3-3-3-3--7-7-7-7-7--5-5-5-5-5--3-3-3-3-3-|
E|-1-1-1-1-1--5-5-5-5-5-----------------------|

Quiero darte una despedida, que recuerdes toda la vida
Esta noche he venido tan solo, a que nos demos el último polvo
Quizás parezca pedir demasiado, pero yo sé que tu también lo has deseado
Y si mañana se termina todo, será después de nuestro último polvo

-------------------------------------------------------------------------

Verso 2

e|5-----6-----5-----8-----6-----5-----6-----5p6h5---|
B|--6-----6-----6-----6-----6-----6-----6-----6-----|
G|----5-----5-----5-----5-----5-----5-----5-----5---|
D|--------------------------------------------------|
A|--------------------------------------------------|
E|--------------------------------------------------|  se repite 4 veces

Tanta desilusión, tanta desolación
Hoy es de cada uno lo que fue de los dos
Y ahora habrá que esperar lo que pueda pasar
No debe haber comienzo si no ha habido final
Y cuando salga el sol nos diremos adiós
Todo será distinto para nosotros dos

-------------------------------------------------------------------------

Precoro
e|-------------------------------------------|   :dejar sonar
B|-------------------------------------------|
G|-----5:--3:--------------------------------|
D|-3:--5:--3:--------------------------------|
A|-3:--3:--1:--------------------------------|
E|-1:----------------------------------------|

Creí que indudablemente podía botarte de repente
Fíjate si estaba equivocado
Siendo tú quien me ha botado

-------------------------------------------------------------------------

Coro: (distorsión)
e|--------------------------------------------|
B|--------------------------------------------|
G|-----------------------7-7-7-7-7--5-5-5-5-5-|
D|-3-3-3-3-3--7-7-7-7-7--7-7-7-7-7--5-5-5-5-5-|
A|-3-3-3-3-3--7-7-7-7-7--5-5-5-5-5--3-3-3-3-3-|
E|-1-1-1-1-1--5-5-5-5-5-----------------------|

Quiero darte una despedida, que recuerdes toda la vida
Esta noche he venido tan solo, a que nos demos el último polvo
Quizás parezca pedir demasiado, pero yo sé que tu también lo has deseado
Y si mañana se termina todo, será después de nuestro último polvo

-------------------------------------------------------------------------

Puente de la cancion

e|-------------------------------------------|
B|-------------------------------------------|
G|-3-3-3-3-3--7-7-7-7-7--5-5-5-5-5-----------|
D|-3-3-3-3-3--7-7-7-7-7--5-5-5-5-5-----------|
A|-1-1-1-1-1--5-5-5-5-5—-3-3-3-3-3-----------|
E|-------------------------------------------|

Yo descubrí el área nunca antes visitada
Del lado oscuro de tu almohada
Yo pasé mi lengua por el borde de tu cara
Probé tus lágrimas saladas

-------------------------------------------------------------------------

Final

e|-------------------------------------------|
B|-------------------------------------------|
G|------------7-7-7-7-7----------------------|
D|-3-3-3-3-3--7-7-7-7-7--7-7-7-7-7-----------|
A|-3-3-3-3-3—-5-5-5-5-5—-7-7-7-7-7-----------|
E|-1-1-1-1-1-------------5-5-5-5-5-----------|


e|5-----6-----5-----8-----6-----5-----6-----5p6h5---|
B|--6-----6-----6-----6-----6-----6-----6-----6-----|
G|----5-----5-----5-----5-----5-----5-----5-----5---|
D|--------------------------------------------------|
A|--------------------------------------------------|
E|--------------------------------------------------|
Suggest correction
Give kudos to tab author, rate the tab!
1 2 3 4 5
comments
print report bad tab
guest
You may want to rate the tab now too:
select rating
Please do not post tabs as comments. Select "correction" instead!