Oops, an error
Loading. Please wait.

Nine Feet Underground Tab

55 views 12 this week
no commentswrite comment
1 2 3 4 5
3 more votes to show rating
add to favorites
launch autoscroll
font size
0
reset
how to read this tab
guitar tuner
Autoscroll
slow
fast
+/-
esc
set tempo
stop
Help us to improve Ultimate-Guitar.com Take our survey!
×
Author
Difficulty
intermediate
/ slide
b bend



e|-7-11-7-8----------------------|
B|--4-------4-----4-5------------|
G|----------6-7-3----------------|
D|-------------------------------|
A|-----------------------7-7-7-2-|
E|-----------------------------0-|


e|-12-12-12-12-12-13---14-6-7----9-8-7-7-6-|
B|-----------------------------------------|
G|-----------------------------------------|
D|-----------------------------------------|
A|-----------------------------------------|
E|-----------------------------------------|


e|------------------------------------10-14-10--11-12-0-1-0-1-2-3-21b-|
B|----------13b-11--11b-11-10-12-9-8-7--------12----------------------|
G|---10-12--------12--------------------------------------------------|
D|-12-----------------------------------------------------------------|
A|--------------------------------------------------------------------|
E|--------------------------------------------------------------------|


e|-12-12-12-12-12-13---14-6-7----9-8-7-7-6-|
B|-----------------------------------------|
G|-----------------------------------------|
D|-----------------------------------------|
A|-----------------------------------------|
E|-----------------------------------------| x2


e|------------------------------------10-14-10--11-12-0-1-0-1-2-3-21b-|
B|----------13b-11--11b-11-10-12-9-8-7--------12----------------------|
G|---10-12--------12--------------------------------------------------|
D|-12-----------------------------------------------------------------|
A|--------------------------------------------------------------------|
E|--------------------------------------------------------------------|


e|-7-11-7-8----------------------|
B|--4-------4-----4-5------------|
G|----------6-7-3----------------|
D|-------------------------------|
A|-----------------------7-7-7-2-|
E|-----------------------------0-|
Suggest correction
Give kudos to tab author, rate the tab!
1 2 3 4 5
comments
print report bad tab
guest
You may want to rate the tab now too:
select rating
Wanna post a correction for this tab? Suggest correction