Oops, an error
Loading. Please wait.

Queens Tab

3,419 views 6 this week
3 commentsread comments
1 2 3 4 5
x 3
add to favorites
launch autoscroll
font size
0
reset
how to read this tab
guitar tuner
Autoscroll
slow
fast
+/-
esc
set tempo
stop
Help us to improve Ultimate-Guitar.com Take our survey!
×
Author
Difficulty
intermediate
-----------------------------------------------------
               QUEENS - Caravan Palace
-----------------------------------------------------

Submitted: 11/01/2013
Caravan Palace official website: http://www.caravanpalace.com/

Tuning: Standard (EADGBe)

There appears to be a complete lack of Caravan Palace tabs anywhere on the 
internet, so I decided to change that.
I'm just posting the intro for now, since I'm not sure if I'll get around to 
tabbing the whole thing. But if I do, I'll submit it.

(0:00-0:09)
e|-------------------------------------------------|
B|----3----3----3-----0-----3-----3-----0----------|
G|-------------------------------------------------|
D|-------------------------------------------------|
A|-2----2----2-----------2-----2-----4-----1--4--2-|
E|-----------------2-------------------------------|

(0:10-0:18)
e|--------------------------------------------------------------------------------------|
B|--------------------------------------------------------------------------------------|
G|-9--7--10--7-------------------------------------------6-------------------7--9--7----|
D|-----------------9----------------9--------------6--9-------------------------------9-|
A|--------------9-----10b11------9-----10b11----9-----------10b11------9/11-------------|
E|--------------------------------------------------------------------------------------|

********************
b = bend up
/ = slide up
********************
Suggest correction
Give kudos to tab author, rate the tab!
1 2 3 4 5
comments
print report bad tab
3 comments total.
+2 reply
bgbd182 10 Jul 31, 2013 12:25 AM

I would definitely love to see more Caravan Palace tabs, specially on UG.

0 reply
LedEar 10 Sep 12, 2013 08:57 PM

You are awesome please do post all of Panic! I am hooked on Caravan Palace but cant find any tabs for it. It would be very nice to learn some more of their songs! We need bass tabs!

0 reply
LA_Corkscrew 10 Nov 15, 2014 06:22 PM

duck yea! hope to see more caravan palace tabs

guest
You may want to rate the tab now too:
select rating
Wanna post a correction for this tab? Suggest correction