Oops, an error
Loading. Please wait.

Blood Spattered Banner Tab

version 2
version 2

Whole song

Interactive

by Carcass
258 views 3 this week
no commentswrite comment
1 2 3 4 5
3 more votes to show rating
add to favorites
launch autoscroll
font size
0
reset
how to read this tab
guitar tuner
Autoscroll
slow
fast
+/-
esc
set tempo
stop
Author
Tuning
B E A D F# B
Band:  Carcass
Album: Wake Up and Smell the Carcass
Song:  Blood Spattered Banner

Tuning: B Standard

  Riff A:
B |---------------------------|
F#|---------------------------|
D |--------------0------------|
A |--2---------0----0*--------|
E |--2---2/4-4---------4-5-7--|
B |--0-----------------2-3-5--|

B |---------------------------|
F#|---------------------------|
D |--------------0------------|
A |--2---------0----0*-----7--|
E |--2---2/4-4---------4-5-5--|
B |--0-----------------2-3----|

*: it's important you let these notes ring out as long as possible

  Riff B:
B |---------------------------------------|
F#|---------------------------------------|
D |---------------------------------------|
A |--2--2-----------------2---------------|
E |--2--2--2h4/5p4\2p0-5--0--2h4/5p4\2p0--|
B |--0--0--------------3------------------|

B |---------------------------------------|
F#|---------------------------------------|
D |---------------------------------------|
A |--2--2---------------------------------|
E |--2--2--2h4/5p4\2p0-5--5--2h4/5p4\2p0--|
B |--0--0--------------3--2---------------|

B |-----------------------------------------------|
F#|---------------------------------0-------------|
D |-----------------------------------3*----------|
A |--2--2-----------------2-----------------------|
E |--2--2--2h4/5p4\2p0-5--0----------------5---2--|
B |--0--0--------------3-----15\-3------/7---3-0--|

*: it's important you let these notes ring out as long as possible

B |---------------|
F#|---------------|
D |---------------|
A |---------------|
E |--2h4/5p4\2p0--|
B |---------------|

  Riff C:
B |---------------------------------------|
F#|---------------------------------------|
D |---------------------------------------|
A |--2--2-----------------2---------------|
E |--2--2--2h4/5p4\2p0-5--0--2h4/5p4\2p0--|
B |--0--0--------------3------------------|

B |---------------------------------------|
F#|---------------------------------------|
D |---------------------------------------|
A |--2--2---------------------7-----------|
E |--2--2--2h4/5p4\2p0-5--9-7-5-----------|
B |--0--0--------------3--7-5-------------|

B |-----------------------------------------------|
F#|---------------------------------0-------------|
D |-----------------------------------3-----------|
A |--2--2-----------------2-----------------------|
E |--2--2--2h4/5p4\2p0-5--0----------------5------|
B |--0--0--------------3-----15\-3------/7---3-0--|

B |--------------------------------|
F#|------------------0-------------|
D |--------------------3-----------|
A |--------------------------------|
E |-7h8------4--7-----------5------|
B |-----6-7~-2--5-3------/7---3-0--|

  Chorus:
B |-----------------|
F#|-----------------|
D |-----------------|
A |-----------------|
E |---7h8------4-5--|
B |-0-----6-7~-2-3--|

B |-----------------|
F#|-----------------|
D |-----------------|
A |-----------------|
E |---7h8------4-5--|
B |-0-----6-7~-2-3--|

B |-----------------|
F#|-----------------|
D |-----------------|
A |-----------------|
E |---7h8------4-5--|
B |-0-----6-7~-2-3--|

B |-----------------|
F#|-----------------|
D |-----------------|
A |-----------------|
E |---7h8------4-4/5|
B |-0-----6-7~-2-2/3|

  Riff D:
B |---------------------------------------|
F#|---------------------------------------|
D |---------------------------------------|
A |--2--2-----------------2---------------|
E |--2--2--2h4/5p4\2p0-5--0--2h4/5p4\2p0--|
B |--0--0--------------3------------------|

B |---------------------------------------|
F#|---------------------------------------|
D |---------------------------------------|
A |--2--2---------------------------------|
E |--2--2--2h4/5p4\2p0-5--5--2h4/5p4\2p0--|
B |--0--0--------------3--2---------------|

B |-----------------------------------------------|
F#|---------------------------------0-------------|
D |-----------------------------------3-----------|
A |--2--2-----------------2-----------------------|
E |--2--2--2h4/5p4\2p0-5--0--15\-----------5------|
B |--0--0--------------3---------3------/7---3-0--|

B |--------------------------------|
F#|------------------0-------------|
D |--------------------3-----------|
A |--------------------------------|
E |-7h8------4--7-----------5------|
B |-----6-~--2--5-3------/7---3-0--|

Chorus x 1
Riff A x 2
Riff C x 1
Chorus x 2 (play with powerchords all through the second time)

  Riff E under solo:
B |-------------------------|
F#|-------------------------|
D |-------------------------|
A |----------------------7--|
E |--2---4-5-7--2---4-5--5--|
B |--0---2-3-5--0---2-3-----| x 2

Chorus x 1
Riff E
Chorus x 2 (play with powerchords all through the second time)
Riff A x 4

  Finish off with:
B |---------|
F#|---------|
D |---------|
A |---------|
E |--2---2--|
B |--0---0--|


.  - palm mute           /  - slide up to
\  - slide down to       ~  - vibrato
h  - hammer on           b  - Bend
p  - pull off            Suffixes for bend
t  - tap                 f  - full bend    h - half bend
ph - pinched harmonic    q  - quarter bend t - tap bend
*  - see comment         ^  - Hold bend    r release bend
x  - Stuccatto           ~  - vibrato bend
,  - slight palm mute    () - ghost note, sustained note
"  - tremolo note        <> - Trill
Suggest correction
Give kudos to tab author, rate the tab!
1 2 3 4 5
comments
print report bad tab
guest
You may want to rate the tab now too:
select rating
Wanna post a correction for this tab? Suggest correction