Oops, an error
Loading. Please wait.

Buried Dreams Bass Tab

version 1
version 1

Whole song

Interactive

55 views 3 this week
no commentswrite comment
1 2 3 4 5
3 more votes to show rating
add to favorites
launch autoscroll
font size
0
reset
guitar tuner
Autoscroll
slow
fast
+/-
esc
set tempo
stop
Help us to improve Ultimate-Guitar.com Take our survey!
×
Author
Difficulty
Tuning
intermediate
B E A D F# B
Band: Carcass
Song: Buried Dreams (Studio version)
Album: Heartwork
Tuning: B standard BEAD, but for a five string BEADG

NOTE: This is the studio version of the song Buried Dreams and it is the closest I can 
get it to
the bass master track that Jeff Walker played on the album,
if there is something off please leave a comment.
The song was recorded with a five string bass but I tabbed it out on a four string
and it can be played on both.


[Intro]

D|---------------------------------------|
A|---------------------------------------|
E|---------------------------------------|
B|----0-3-4-3-0--------------------------|

D|---------------------------------------|
A|---------------------------------------|
E|---------------------------------------| 
B|----3-4-3-0----------------------------|(x4)


[Verse]

D|-----------------------------------------------------------------|
A|-----------------------------------------------------------------|
E|-----------------------------------------------------------------|
B|-0-0-0-0-0-0-0-0-0-0-0-0-0-0-0-0-0-0-0-0-0-0-0-0-0-0-0-0-3-4-3-0-|(x2)


[Pre-Chorus]

D|--------------------------------------------|-------------------------------------------|
A|--------------------------------------------|-------------------------------------------|
E|---------9------------8---------3-----6-----|---------9------------8---------4-3------1-|
B|-0----0-----0--0-0-0-----0--0-0-----------4-|-0----0-----0--0-0-0-----0--0-0-----3-4----|(x2)



[Verse](x2)

[play Pre-Chorus](x2)


[Chorus] 

NOTE: There are two different ways to play the chorus,
you can play what's here, the way it was done on the album or
play what the guitars are playing, but both sound good

D|-----------------------------------------------------------|
A|-----------------------------------------------------------|
E|-----------1---------------3-1-1-1-1-1-1-1-0-0-4-3---------|
B|-0-0-0-0-0---3-3-3-3-3-3-3-------------------------3-4-1-0-|

D|---------------------------------------------------------|
A|---------------------------------------------------------|
E|-----------1---------------3-1-1-1-1-1-1-1-0--0-0--------|
B|-0-0-0-0-0---3-3-3-3-3-3-3------------------------1--1-1-|

[Play Pre-Chorus]

[Play Chorus]

[Bridge 1]

D|-----------------------------------------------------------------------------------------------------|
A|---------------------------------------------------------------------------------------------------7-|
E|---------------------------7---------------------------6---------------------------5---0-2/6\4-4/5---|
B|-0-0-0-0--0-0-0-0--0-0-0-5---0-0-0-0--0-0-0-0--0-0-0-4---0-0-0-0--0-0-0-0--0-0-0-3-------------------|


[Bridge 2]

D|--------------------------------------------------------------------------------|
A|--------------------------------------------------------------------------------|
E|--------------------7--------------------6-----------------------5--0-2-4/6-4-6-|
B|-0--0-0-0--0--0--5----0--0-0-0--0--0--4----0--0-0-0--0--0--0--3-----------------|

[Under Solo]

D|---------------------------------------------------------------|
A|---------------------------------------------------------------|
E|-4-----4-----4---2-----2-----2---5-----5-----5---4-----4-------|
B|---2-2---2-2---2---4-4---4-4---4---1-1---1-1-------2-2---2-2-0-|
                                                                 |(x2)
D|---------------------------------------------------------------|
A|---------------------------------------------------------------|
E|-4-----4-----4---2-----2-----2---5-----5-----5-----------------|
B|---2-2---2-2---2---4-4---4-4---4---1-1---1-1---2-4-2-1-7-5-4---|


[Breakdown]
D|--------------------------------|-----------------------------------|
A|--------------------------------|---------------------------4-5-----|
E|-7--7--2/3--3--3/4--4--4/5--6-7-|-7--7--2/3--3--3/4--4----------7-5-|
B|--------------------------------|----------------------4/5----------|

D|--------------------------------|----------------------------------------|
A|--------------------------------|--------------------------77---7--------|
E|-7--7--2/3--3--3/4--4--4/5--6-7-|-7--7--2/3--3--3/4--4--------8---0------|
B|--------------------------------|----------------------4/6-----------3-0-|

[Play Pre-Chorus]

[Intro 2]

D|--------------------------------|
A|--------------------------------|
E|--------------------------------|
B|-0----------------------3-4-3-0-|

[Play Pre-Chorus]
[Play Chorus]
[Play Bridge 1 (x2 times) but with a new 2nd ending]

D|-------------|
A|-------------|
E|-0-2/4/6\4---|
B|-----------5-|


************************************

| /  Slide up
| \  Slide down

************************************
Suggest correction
Give kudos to tab author, rate the tab!
1 2 3 4 5
comments
print report bad tab
guest
You may want to rate the tab now too:
select rating
Wanna post a correction for this tab? Suggest correction