Oops, an error
Loading. Please wait.

Doctrinal Expletives Tab

version 1
version 1

Whole song

Interactive

926 views 3 this week
no commentswrite comment
1 2 3 4 5
please rate
add to favorites
launch autoscroll
font size
0
reset
how to read this tab
guitar tuner
Autoscroll
slow
fast
+/-
esc
set tempo
stop
Help us to improve Ultimate-Guitar.com Take our survey!
×
                        CARCASS - DOCTRINAL EXPLETIVES
                        From the Album HEARTWORK
                        Copyright 1994 EARACHE RECORDS
                        Version 1.0 - NOVEMBER 2001

Transcribed by: death8699

For Questions, Comments, Newest Version, or Corrections contact
 death8699: at archenemies@aol.com

Check Out Death8699.com, With More Transcriptions On It:
 http://www.death8699.com




.  - palm mute                  /  - slide up to
\  - slide down to              ~  - vibrato             
h  - hammer on                  b  - bend 
p  - pull off                   Suffixes for bend    
ph - pinch harmonic             f - full bend    h - half bend
*  - see comment                r - release      t - tap bend
X  - percussion mute            ~ - vibrato bend
@  - slight palm mute           () - ghost note, sustained note

Tune Gtr to B

--DOCTRINAL EXPLECTIVES--

Riff A 
|---------------------------|---------------------------|
|---------------------------|---------------------------|
|---------------------------|---------------------------|Gtrs
|---------------------------|---------------------------|I&II
|-8/9\8\7-8/9\8\7-----------|-8/9\8\7-8/9\8\7-----------|
|-6/7\6\5-6/7\6\5-055555555-|-6/7\6\5-6/7\6\5-055555555-|
|                 .........                   .........
|
|                                                    2tx
|---------------------------|--------------------------|
|---------------------------|--------------------------|
|---------------------------|--------------------------|Gtrs
|---------------------------|--------------------------|I&II
|-8/9\8\7-8/9\8\7-----------|-8/9\8\7-8/9\8\7----------|
|-6/7\6\5-6/7\6\5-055555555-|-6/7\6\5-6/7\6\5-11114444-|
                  .........                   ........


Riff B
|------------------------------|--------------------------------|
|------------------------------|--------------------------------|
|------------------------------|--------------------------------|Gtrs
|------3---------3----------3--|-------3----------3---------3---|I&II
|------1---------1----------1--|-------1----------1---------1---|
|-1111-----1---1-----1-1111----|-1---1-----1-1111-----1---1-----|
| ....     .   .     . ....      .   .     . ....     .   .
|
|                   2tx
|----------------------|
|----------------------|
|----------------------|Gtrs
|--------3----8\----9\-|I&II
|--------1----6\----7\-|
|-1-1111---00----00----|
  . ....   ..    ..


Riff A 2tx


Riff B.1
|------------------------------|--------------------------------|
|------------------------------|--------------------------------|
|------------------------------|--------------------------------|Gtrs
|------3---------3----------3--|-------3----------3---------3---|I&II
|------1---------1----------1--|-------1----------1---------1---|
|-1111-----1---1-----1-1111----|-1---1-----1-1111-----1---1-----|
| ....     .   .     . ....      .   .     . ....     .   .
|
|                   2tx
|----------------------|
|----------------------|
|-------------3-----4--|Gtrs
|--------3----1-----2--|I&II
|--------1-------------|
|-1-1111---00----00----|
  . ....   ..    ..


Riff C                
|---------------|---------------|---------------|------------------------|
|---------------|---------------|---------------|------------------------|
|---------------|---------------|---------------|---------7-----------9--|Gtrs
|-9\7----7----9-|-9\7----7----9-|-9\7----7----9-|------9------9 / 11-----|I&II
|-7\5----5----7-|-7\5----5----7-|-7\5----5----7-|-101010-----10 / 12-----|
|-0--000--000---|-0--000--000---|-0--000--000---|------------------------|
|    ...  ...        ...  ...        ...  ...      . . 
|
|---------------|---------------|---------------|------------------------|
|---------------|---------------|---------------|------------------------|
|---------------|---------------|---------------|---------7-----------9--|Gtrs
|-9\7----7----9-|-9\7----7----9-|-9\7----7----9-|------9------9 / 11-----|I&II
|-7\5----5----7-|-7\5----5----7-|-7\5----5----7-|-101010-----10 / 12-----|
|-0--000--000---|-0--000--000---|-0--000--000---|------------------------|
|    ...  ...        ...  ...        ...  ...      . .
|
|---------------|---------------|---------------|------------------------|
|---------------|---------------|---------------|------------------------|
|---------------|---------------|---------------|---------7-----------9--|Gtrs
|-9\7----7----9-|-9\7----7----9-|-9\7----7----9-|------9------9 / 11-----|I&II
|-7\5----5----7-|-7\5----5----7-|-7\5----5----7-|-101010-----10 / 12-----|
|-0--000--000---|-0--000--000---|-0--000--000---|------------------------|
|    ...  ...        ...  ...        ...  ...      . .
|
|---------------|---------------|---------------|-----------------------|
|---------------|---------------|---------------|-----------------------|
|---------------|---------------|---------------|---------9------10p9\7-|Gtrs
|-9\7----7----9-|-9\7----7----9-|-9\7----7----9-|-12--------------------|I&II
|-7\5----5----7-|-7\5----5----7-|-7\5----5----7-|----1010---1212--------|
|-0--000--000---|-0--000--000---|-0--000--000---|-----------------------|
     ...  ...        ...  ...        ...  ...         . .    . .


Riff D                                     
|-----------------------------------|-----------------------------------------|
|-----------------------------------|-----------------------------------------|
|-----------------------------------|-----------------------------------------|Gtrs
|-----------------------------------|-----------------------------------------|I&II
|-2h3p2p0-2h3p2p0-2h3p2p0-2h3p2p0---|-2h3p2p0-2h3p2p0-2h3p2p0-2h3p2p0-2h3p2p0-|
|--------------------------------00-|-----------------------------------------|
|                                ..                                         
|
|  [1-3]   [4]
|-------|-----|
|-------|-----|
|-------|---5-|Gtrs
|-------|---3-|I&II
|---3---|---3-|
|-0-1---|-0---|
  .       .


Riff A 2tx
Riff B.1
Riff C.1 1tx


Riff C.1                                               Let ring - - - - -|
|---------------|---------------|---------------|------------------------|
|---------------|---------------|---------------|------------------------|
|---------------|---------------|---------------|---------7-----------9--|Gtrs
|-9\7----7----9-|-9\7----7----9-|-9\7----7----9-|------9------9 / 11-----|I&II
|-7\5----5----7-|-7\5----5----7-|-7\5----5----7-|-101010-----10 / 12-----|
|-0--000--000---|-0--000--000---|-0--000--000---|------------------------|
|    ...  ...        ...  ...        ...  ...      . . 
|
|                                                      Let ring - - - - -|
|---------------|---------------|---------------|------------------------|
|---------------|---------------|---------------|------------------------|
|---------------|---------------|---------------|---------7-----------9--|Gtrs
|-9\7----7----9-|-9\7----7----9-|-9\7----7----9-|------9------9 / 11-----|I&II
|-7\5----5----7-|-7\5----5----7-|-7\5----5----7-|-101010-----10 / 12-----|
|-0--000--000---|-0--000--000---|-0--000--000---|------------------------|
|    ...  ...        ...  ...        ...  ...      . .
|
|                                                      Let ring - - - - -|
|---------------|---------------|---------------|------------------------|
|---------------|---------------|---------------|------------------------|
|---------------|---------------|---------------|---------7-----------9--|Gtrs
|-9\7----7----9-|-9\7----7----9-|-9\7----7----9-|------9------9 / 11-----|I&II
|-7\5----5----7-|-7\5----5----7-|-7\5----5----7-|-101010-----10 / 12-----|
|-0--000--000---|-0--000--000---|-0--000--000---|------------------------|
|    ...  ...        ...  ...        ...  ...      . .
|                                               
|---------------|---------------|---------------|--------------------|
|---------------|---------------|---------------|--------------------|
|---------------|---------------|---------------|--------------------|Gtrs
|-9\7----7----9-|-9\7----7----9-|-9\7----7----9-|-12----13----14-----|I&II
|-7\5----5----7-|-7\5----5----7-|-7\5----5----7-|---1110--1211--1312-|
|-0--000--000---|-0--000--000---|-0--000--000---|--------------------|
     ...  ...        ...  ...        ...  ...      . . . . . . . . .


Riff D 1tx
Riff A .5tx


Riff E
|---------------------|-------------------------|
|---------------------|-------------------------|
|---------------------|-------------------------|Gtrs
|---------------------|-------------------------|I&II
|-6-----6-----6-----6-|-----6-----6--------1014-|
|---444---444---444---|-444---444----00434------|
|   ...   ...   ...     ...   ...    ..... ....
|
|---------------------|-------------------------|
|---------------------|-------------------------|
|---------------------|-------------------------|Gtrs
|---------------------|-------------------------|I&II
|-6-----6-----6-----6-|-----6-----6--------1014-|
|---444---444---444---|-444---444----00434------|
|   ...   ...   ...     ...   ...    ..... ....
|
|---------------------|-------------------------|
|---------------------|-------------------------|
|---------------------|-------------------------|Gtrs
|---------------------|-------------------------|I&II
|-6-----6-----6-----6-|-----6-----6--------1014-|
|---444---444---444---|-444---444----00434------|
|   ...   ...   ...     ...   ...    ..... ....
|
|---------------------|-------------------------|
|---------------------|-------------------------|
|---------------------|-------------------------|Gtrs
|---------------------|-------------------------|I&II
|-6-----6-----6-----6-|-----6-----6--------1014-|
|---444---444---444---|-444---444----00434------|
    ...   ...   ...     ...   ...    ..... ....


Riff F
|-----------------------------|-----------------------------|
|-----------------------------|-----------------------------|
|-----------------------------|-----------------------------|Gtrs
|-----------------------------|-----------------------------|I&II
|----------4-------------4----|----------4-------------4----|
|-4"----3-----5-4"----3-----5-|-4"----3-----5-4"----3-----5-|      
  @     @  @  @ @     @  @  @   @     @  @  @ @     @  @  @


Riff E 1tx
Riff F 1tx


Riff D.1
|-----------------------------------|-----------------------------------------|
|-----------------------------------|-----------------------------------------|
|-----------------------------------|-----------------------------------------|Gtrs
|-----------------------------------|-----------------------------------------|I&II
|-2h3p2p0-2h3p2p0-2h3p2p0-2h3p2p0---|-2h3p2p0-2h3p2p0-2h3p2p0-2h3p2p0-2h3p2p0-|
|--------------------------------00-|-----------------------------------------|
|                                ..                                         
|
|  [1-3]  [4]
|-------|-----|
|-------|-----|
|-------|-4-5-|Gtrs
|-------|-2-3-|I&II
|---3---|-2-3-|
|-0-1---|-----|
  .

Check Out Death8699.com, With More Transcriptions On It:
 http://www.death8699.co
Suggest correction
Give kudos to tab author, rate the tab!
1 2 3 4 5
comments
print report bad tab
guest
You may want to rate the tab now too:
select rating
Wanna post a correction for this tab? Suggest correction