Oops, an error
Loading. Please wait.

Forensic Clinicism The Sanguine Article Tab

version 1
version 1

Whole song

Interactive

by Carcass
825 views 3 this week
no commentswrite comment
1 2 3 4 5
3 more votes to show rating
add to favorites
×
Save as Personal and add changes to this tab that will be seen only by you. Learn more ›
launch autoscroll
font size
0
reset
how to read this tab
guitar tuner
Autoscroll
slow
fast
+/-
esc
set tempo
stop
Tuning
B E A D F# B
Forensic Clinicism/The Sanguine Article
   (Tune down 2.5 steps to B)
   "Pultacious, pugnacious..." etc. (just approx):
B |----------------------------------------------|
F#|----------------------------------------------|
D |-----------------------------------6---5------|
A |-7--7-------5--5-------7--7--------6---5---5--|
E |-7--7--666--5--5--666--7--7--7777--4---3---5--|
B |-5--5--444--3--3--444--5--5--5555----------3--|

B |--------------------------------------------| (the ending's different the
F#|--------------------------------------------|  second time:  Db5 C5 G5,
D |---------------------------------6---5------|  Db5 C5 F#5, maybe?)
A |-7-------------------7--7--------6---5---5--|
E |-7---6------------6--7--7--7777--4---3---5--|
B |-5---4--3b4r3~~~--4--5--5--5555----------3--|

  After "you're a bit cut up..."
B |------------------|-------|-------|---------------|
F#|------------------|-------|-------|---------------|
D |*-----------------|-------|-------|--------------*|
A |*-----------------|-------|-------|-2-2--2--2--2-*|
E |-2-2-2-2-2-2-2222-|-------|-------|-2-2--2--2--2--|
B |-0-0-0-0-0-0-0000-|-------|-------|-0-0--0--0--0--|
    e e e e e e ssss                   e q  q  q  e

B |---------------------|-----------------|  Or is the (6) 2 1 actually
F#|---------------------|-----------------|  (6) 3 2 instead?
D |*--------------------|-----------------|
A |*-5-----4-----3(tr2)-|-----------------|
E |---------------------|-2-2222222-2-222-|
B |----3-2---2-1--------|-0-0000000-0-000-|
     e e e e e e q        e sssssse e sse

          _____________________________________
         |1.                |2.
B |--------------------|------------------|------------------|
F#|--------------------|------------------|------------------|
D |--------------------|-----------------*|------------------|
A |-5-----4-----3(tr2)-|-----------------*|------------------|
E |--------------------|-5-5555555-5-555--|-5-5555554-4-444--|
B |---3-2---2-1--------|-3-3333333-3-333--|-3-3333332-2-222--|
    e e e e e e q        e sssssse e sse    sim.

B |-------------------------------------------------------------|
F#|-------------------------------------------------------------|
D |--/9~~~~~----/12-11-9----------------------------------------| etc.
A |----------------------9~~~~~~---9b10r9--9b10r9--9-10-7~~~~---|
E |-------------------------------------------------------------|
B |-------------------------------------------------------------|

   The latter part of "The Sanguine Articles":
B |------------------------------------------22-19~~~-|
F#|------------------/17-20-----------/17-20----------|
D |--------19-16~~~---------16-19~~~------------------|
A |-/14-17--------------------------------------------|
E |---------------------------------------------------|
B |---------------------------------------------------|

B |-20-19h20p19-17----------------------------------------|
F#|----------------20-17h19-20-19-17\15-17h19-17p15-------|
D |-------------------------------------------------16~~~-|
A |-------------------------------------------------------|
E |-------------------------------------------------------|
B |-------------------------------------------------------|
Suggest correction
Give kudos to tab author, rate the tab!
1 2 3 4 5
comments
print report bad tab
guest
You may want to rate the tab now too:
select rating
Wanna post a correction for this tab? Suggest correction