Oops, an error
Loading. Please wait.

Forensic Clinicism The Sanguine Article tab

version 2
version 2

Whole song

Interactive

by Carcass
414 views 36 this week
no commentswrite comment
1 2 3 4 5
3 more votes to show rating
add to favorites
×
Save as Personal and add changes to this tab that will be seen only by you. Learn more ›
×
You can save this tab as Personal to edit and correct it or add notes. All changes will be seen only by you. Learn more »
launch autoscroll
font size
0
reset
how to read this tab
guitar tuner
edit
Autoscroll
slow
fast
+/-
esc
set tempo
stop
Song: FORENSIC CLINICISM/THE SANGUINE ARTICLE
Band: CARCASS
ALBUM: Necroticism: Descanting the Insalubrious



Tuning (Low to High) - B E A D F# B

A1   (1,3,5,7)             (2,6)              (4)             (8)
|-------------------|-----------------|-----------------|------------|
|5-----4-----3tr2---|-----------------|-----------------|3-----------|
|--4-5---3-4--------|-----------------|1-111111-1-1-111-|1-----3-----|
|-------------------|0-000000-0-0-000-|-----------------|------1-----|
|  . .   . .         . ...... . . ...  . ...... . . ...              |
|-------------------|-----------------|-----------------|------------|
|-------------------|-----------------|-----------------|3-----------|
|-5-----------------|-----------------|-----------------|1-----3-----|
|-3-----------------|-----------------|-----------------|------1-----|


B
|------------------------------------------------|----------------|
|--------7---------------6-------5---------------|4---------------|
|8-------5---7---6-------4---6---3-------5---4---|2---------------|
|6-----------5---4-----------4-----------3---2---|----------------|

|------------------------------------------------|----------------|
|--------7---------------6-------5---------------|4---3-----------|
|8-------5---7---6-------4---6---3-------5---4---|2---1---3-3-2---|
|6-----------5---4-----------4-----------3---2---|--------1-1-0---|
                                                          . .

|------------------------------------------------|----------------|
|------------------------------------------------|ph--------------|
|--------5---------------4-------3~~~------------|2^~~~-----------|
|6~~~--------5---4~~~--------4-----------3---2---|----------------|

|------------------------------------------------|----------------|
|--------7---------------6-------5---------------|3---4-----------|
|8-------5---7---6-------4---6---3-------5---4---|1---2---3-3-4---|
|6-----------5---4-----------4-----------3---2---|--------1-1-2---|
                                                          . .

C1
|------------------------------------------------|-----------------|
|------------------------------------------------|(5)/6----5-------|
|7---7---x-x-6---5---5---x-x-6---7---7---x-x-x-x-|(3)/4----3---5---|
|5---5---x-x-4---3---3---x-x-4---5---5---x-x-x-x-|-------------3---|


C2                           
|------------------------------------------------|-----------------|
|------------------------------------------------|(4)/7----6-------|
|7-----------6---5/6\5-------6---7---7---x-x-x-x-|(6)/5----4---5---|
|5-----------4---3/4\3-------4---5---5---x-x-x-x-|-------------3---|

Repeat C1, C2

Fill 2
|----------------|
|--6-----5-------|
|x-4-----3---4---|
|x-----------2---|

Repeat B, (C1+C2) x 2

Fill 3 (note: loose timing)
|-------------------------------|----------------|
|6------5--------5------4-------|2---------------|
|4------3---4----3------2---3---|2---------------|
|-----------2---------------1---|0---------------|

D                       Play twice
|--------------------------------|
|----3---4-----------5---6-------|
|2---1---2---3---4---3---4---5---|
|0-----------1---2-----------3---|

E1
|--------------------------------|--------------------------------|
|--------------------------------|--9-8-----8-7-------------------|
|77778888444455558888444455557777|7-----7-6-----6-6---5\4-5---4---|
|--------------------------------|----------------4---3\2-3---2---|
 ................................

E2
|--------------------------------|--------------------------------|
|--------------------------------|--5-6-----6-7-------------------|
|77778888444455558888444455557777|4-----4-5-----5-4---5/6-5---6---|
|--------------------------------|----------------2---3/4-3---4---|
 ................................

Repeat (E1+E2) x 3

F1
|-----------------------------------------------------------------|
|----------------9---------------------------9---12---------------|
|2-------5---8---7---------------2---5---8---7---10---------------|
|0-------3---6---7---------------0---3---6---7---10---------------|

F2
|-----------------------------------------------------------------|
|----------------12--------------------------12--15---------------|
|5-------8---11--10--------------5---8---11--10--13------3--------|
|3-------6---9-------------------3---6---9---------------1--------|

Repeat F1

F3
|-----------------------------------------------------------------|
|----------------12--------------------------11--14---------------|
|5-------8---11--10--------------4---7---10--9---12------3--------|
|3-------6---9-------------------2---5---8---------------1--------|

G
|--------7-6---------6-5------------------------------------------------|
|--------5-4-7-6-----4-3-6-5-------6-5h6p5----------5-----4-----3(tr2)--|
|------------5-4---------4-3--------------------------445---3-4---------|
|0-0-0-0---------0-0---------0-2-3---------3b4r3~~----------------------|
 . . . . . . . . . . . . . . . .                    . ... . . .

Fill 4
|----------------------------------------------------|
|----------------5-----4-----3(tr2)-3----------------|
|2-----------------4-5---3-4--------1-------3--------|
|0-------------0----------------------------1--------|
 .             . . . . . . .

Repeat (E1+E2) x 2, F1+F2+F1+F3, G x 4

H             (1,2,3)                            (4)
|--------4---3----/(6)/(14)\(7)--|6-------9-\-8-------------------|
|2-------------------------------|--------------------------------|
|2-------2---1----/(4)/(12)\(5)--|4---4-4-7-\-6-------7---8---3---|
|0---0-0-------------------------|--------------------5---6---1---|
     . .                              . .

Repeat H x 2

I             (1,3)                 (2)                       (4)
|----------------------------|----------------|-------------------------------|
|-------3-------------5------|--3-4-----5-6---|-----------------5--4--7--10---|
|2------1------3------3------|2-1-2-3-4-3-4-5-|2----------------3--2--5--8----|
|0-0000---0000-1-0000---0000-|0-----1-2-----3-|0-00000000000000---------------|
   ....   ....   ....   ....                     ..............

Repeat I


Fill 5 (hold chord from end of I)
|------|--------------------------------|
|(10)--|--------------------------------|
|(8)---|2-2-2-2-2-2-2-2-2-2-2-2-2-2-2-2-|
|------|0-0-0-0-0-0-0-0-0-0-0-0-0-0-0-0-|
        . . . . . . . . . . . . . . . .

J     (1,2,3)           (4)
|----------------|----------------|
|----------------|----------------|
|----------------|2-2---2---2---2-|
|0-0-0-0-0-0-0000|0-0---0---0---0-|
 . . . . . . .... . .   .   .   .

Repeat J

A2   (1,3,5,7)             (2,6)              (4)                (8)
|-------------------|-----------------|-----------------|-------------------|
|5-----4-----3tr2---|-----------------|-----------------|-------------------|
|--4-5---3-4--------|-----------------|1-111111-1-1-111-|-1-111111----------|
|-------------------|0-000000-0-0-000-|-----------------|----------1-111111-|
   . .   . .         . ...... . . ...  . ...... . . ...   . ...... . ......

Repeat A2

  (lead: “The sanguine articles” Pt 1 by W. G. Steer) w/Riff A2 x 2
B |---------------------------------------------|----------------------------------|
F#|---------------\/----------------------------|----------------------------------|
D |--------------/12---11-----------------------|----------------------------------|
A |(9)//14~~~~---------------14------------------|-----------------------/12--------|
E |------------------------------14~~~-----12---|14~~-----14b15r14~~~---------13~~-|
B |---------------------------------------------|----------------------------------|


B |----------------------------------------|
F#|-------------------------------11-12-11-|
D |----------------9-12p9----9-12----------|
A |9p8-12p9-8h9h12--------12---------------|
E |----------------------------------------|
B |----------------------------------------|


B |------------12h15p12-12-------------------------------------|
F#|---11-12/15-------------12-11-11-12-11b12r11b12r11b12~~~~~~-|
D |12----------------------------------------------------------|
A |------------------------------------------------------------|
E |------------------------------------------------------------|
B |------------------------------------------------------------|


B |------------------------------10-12-15p12-------------------|
F#|12p11----11-11-12-11----11-12-------------15p12-15p12-11h12-|
D |------12-------------12-------------------------------------|
A |------------------------------------------------------------|
E |------------------------------------------------------------|
B |------------------------------------------------------------|


B |--------------------------------------------18~~~~~~--(18)\-|
F#|------------------------------------/18~~~------------------|
D |15~~~~~~--(15)b16r15b16r15~~~~~~~---------------------------|
A |------------------------------------------------------------|
E |------------------------------------------------------------|
B |------------------------------------------------------------|


B |---------------------------------------/15--------14--------12----------------|
F#|17--------15--------13-------------13--|-----17--------15--------15---12/13---|
D |-----17--------16--------14---16-------|--------------------------------------|
A |---------------------------------------|--------------------------------------|
E |---------------------------------------|--------------------------------------|
B |---------------------------------------|--------------------------------------|
   pm.....................................

B |---------------10-12-14-12p10h12-10-------------|
F#|---------12-13----------------------12-10----10-|
D |14-12-14----------------------------------12----|
A |------------------------------------------------|
E |------------------------------------------------|
B |------------------------------------------------|

B |------------------------------------------------------------|
F#|12h13-12-12h13p12p10----------------------------------------|
D |---------------------12h14p12h14-11~~~~-(11)b12r11~~~~------|
A |------------------------------------------------------------|
E |-------------------------------------------------------11---|
B |------------------------------------------------------------|

B |------------------------------------------------------|
F#|------------------------------------------------------|
D |----------------------------------14--16--17~~----16--|
A |14--12--14-----16--14--16-----17----------------------|
E |------------------------------------------------------|
B |------------------------------------------------------|
   pm.......................................


B |-------------------------------------------------------|
F#|-------------------------------------------------------|
D |14h16p14--11--12------11-------------------------------|
A |------------------14------14---12---14/16--b17r16~~~~--|
E |-------------------------------------------------------|
B |-------------------------------------------------------|

B |-----------------------------------------------------------|
F#|-----------------------------------------------------------|
D |---------------------------------------------14------------|
A |14--12--14-----16--14--16-----17--16--17---------17--16----|
E |-----------------------------------------------------------|
B |-----------------------------------------------------------|
   pm.........................................................

B |------------------------------------------------------------|----------|
F#|17--15---------15-------------------------------------------|----------|
D |-----------17------17-----16--17--16-----14--16--14---------|----------|
A |--------------------------------------------------------17--|14---\----|
E |------------------------------------------------------------|----------|
B |------------------------------------------------------------|----------|

Repeat G x 4

K1 (w/lead)                                             Play 4 times
|----------------|---------------|----------------|----------------|
|----------------|---------------|----------------|----------------|
|2-2-2-2-------2-|2----------2-4-|5---------------|--4-5-4---2-3-2-|
|0-0-0-0-------0-|0----------0-2-|3------------33-|3-------1-------|
 . . . .       .  .          . .               ..  . . . . . . . . 

  (lead: “The sanguine articles” Pt 2 by W. G. Steer) w/Riff K1
B |----------------|----------------|----------------|----------------|
F#|----------------|-----------15---|----------------|----------------|
D |----------------|----------------|16~~~-----------|(16)~~~---------|
A |14--------------|17--------------|----------------|----------------|
E |----------------|----------------|----------------|----------------|
B |----------------|----------------|----------------|----------------|

                                                       * use whammy bar
B |--*-------------|--*-------------|----------------|----------------|
F#|16b17-----------|18b19-r---------|----------------|----------------|
D |----------------|-----------16---|19~~~-----------|(19)~~~~----\\--|
A |----------------|----------------|----------------|----------------|
E |----------------|----------------|----------------|----------------|
B |----------------|----------------|----------------|----------------|

B |----------------|----------/22---|19---~~~--------|----------------|
F#|17--------------|20--------------|----------------|----------------|
D |----------------|----------------|----------------|----------------|
A |----------------|----------------|----------------|----------------|
E |----------------|----------------|----------------|----------------|
B |----------------|----------------|----------------|----------------|

B |20-19h20p19----19----------|---------------------------|---------|---------|
F#|------------22----20----19-|20-19----------------------|---------|---------|
D |---------------------21----|------21-19-21b23-r--21-19-|-16~~----|(16)~~---|
A |---------------------------|---------------------------|---------|---------|
E |---------------------------|---------------------------|---------|---------|
B |---------------------------|---------------------------|---------|---------|

              starts to feedback, strong vibrato w/whammy bar
B |---------------------------------------|
F#|---------------------------------------|
D |(16)~~~~----(+)-/\/\/\/\/\-------------|
A |---------------------------------------|
E |---------------------------------------|
B |---------------------------------------|

K2
|-----------------|--------------|----------------|----------------|
|-----------------|--------------|----------------|----------------|
|2-2-2------------|----------2-4-|5---------------|--4-5-4---2-3-2-|
|0-0-0------------|----------0-2-|3------------33-|3-------1-------|
                                                 ..  . . . . . . . .

Outro
|-----------------|-------------|------------|
|-----------------|-------------|------------|
|2-2-2------------|-------------|2-2-2-------|
|0-0-0------------|-------------|0-0-0-------|


The End.

            
            
Suggest correction
Creating personal tab
Creating personal tab
You can edit any tab online and save it as your Personal.

You can edit, replace or remove any tab part or add personal notes – all changes will be seen only by you.

Personal tabs can be accessed anytime from any device, even offline.
Learn more »
Give kudos to tab author, rate the tab!
1 2 3 4 5
comments
print report bad tab
guest
You may want to rate the tab now too:
select rating
Wanna post a correction for this tab? Suggest correction