Oops, an error
Loading. Please wait.

Generation Hexed Tab

version 1
version 1

Whole song

Interactive

1,286 views 1 this week
no commentswrite comment
1 2 3 4 5
please rate
add to favorites
launch autoscroll
font size
0
reset
how to read this tab
guitar tuner
Autoscroll
slow
fast
+/-
esc
set tempo
stop
Help us to improve Ultimate-Guitar.com Take our survey!
×
Notation:
  .  - palm mute                ~  - vibrato
  \  - slide down               b  - bend
  /  - slide up                    f  - full
  h  - hammer on                   h  - half
  p  - pull off                    r  - release
  <> - artificial harmonic      () - let ring
  T  - tap                      tr - trill
  {3}- triplet                  NH - natural harmonic
  X  - pickslide/muffled note   R  - abrupt stop


  Tuning: B (B E A D F# B)

i started writing the solo but never finished. sry


  RIFF A:
  -------

   RIFF A1
  |---------------------------------|---------------------------------|
  |---------------------------------|---------------------------------|
  |---------------------------------|---------------------------------|
  |-2-----------5-----------8-------|-----7-----------10--b-----------|
  |-0-----------3-----------6-------|-----5-----------8---b-----------|
  |---------------------------------|---------------------------------|


   RIFF A2
  |---------------------------------|---------------------------------|
  |---------------------------------|---------------------------------|
  |---------------------------------|---------------------------------|
  |-2-----------5-----------8-------|-----7---------------------------|
  |-0-----------3-----------6-------|-----5-----------3---------------|
  |---------------------------------|-----------------1-----------/---|


-> RIFF A1 x 1


  RIFF B:
  -------

   RIFF B1
  |---------------------------------|---------------------------------|
  |---------------------------------|---------------------------------|
  |---------------------------------|---------------------------------|
  |-5-p-2-------5-p-2-------5-/-8---|-5-p-2-------5-p-2-------5-/-8---|
  |-3-p-0---X---3-p-0---X---3-/-6---|-3-p-0---X---3-p-0---X---3-/-6---|
  |---------------------------------|---------------------------------|


   RIFF B2
  |---------------------------------|---------------------------------|
  |---------------------------------|---------------------------------|
  |---------------------------------|-----------------8---7---5~------|
  |-5-p-2-------5-p-2-------5-/-7---|-2---8---7---5---6---5---3~------|
  |-3-p-0---X---3-p-0---X---3-/-5---|-0---6---5---3-------------------|
  |---------------------------------|---------------------------------|
                                      .       .   .   .   .

   RIFF B3
  |---------------------------------|---------------------------------|
  |---------------------------------|---------------------------------|
  |---------------------------------|-----------------8---7-----------|
  |-5-p-2-------5-p-2-------5-/-7---|-2---8---7---5---6---5---3-------|
  |-3-p-0---X---3-p-0---X---3-/-5---|-0---6---5---3-----------3-------|
  |---------------------------------|-------------------------1-------|
                                      .       .   .   .   .


-> RIFF B1 x 1
-> RIFF A2 x 1

-> RIFF B1 x 1 \
                > x 4
-> RIFF B2 x 1 /

-> RIFF B1 x 1
-> RIFF B3 x 1


  RIFF C:
  -------

                                          { 3 }
  |---------------------------------|---------------------------------|
  |---------------------------------|---------------------------------|
  |---------------------------------|---------------------------------|
  |-9-------9-------\---------------|-2-h-3p2-------------------------|
  |-7-------7-------\---------------|---------5---3---2---------------|
  |-------------------------/-9-\---|---------------------5---3---5---|
                                                  .   .   .   .   .


  |---------------------------------|---------------------------------|
  |---------------------------------|---------------------------------|
  |---------------------------------|---------------------------------|
  |-2-------2---------------2-------|---------5-\-4-----------5-\-4---|
  |-2-------2---------------2-------|---------3-\-2---4---5---3-\-2---|
  |-0-------0---0-0-0---0---0---5-5-|-5---5-----------2---3-----------|
                . . .   .       . .   .   .           .   .


-> RIFF C x 2


-> RIFF B1 x 1 \
                > x 3
-> RIFF B2 x 1 /

-> RIFF B1 x 1
-> RIFF B3 x 1
-> RIFF C x 2


-> RIFF A1 x 1
-> RIFF B1 x 1
-> RIFF A2 x 1
-> RIFF B1 x 2


-> RIFF B1 x 1 \
                > x 3
-> RIFF B2 x 1 /

-> RIFF B1 x 1
-> RIFF B3 x 1
-> RIFF C x 2


  RIFF D:
  -------

  |---------------------------------|---------------------------------|
  |---------------------------------|---------------------------------|
  |-----0-------0-------0-------0---|-----0-------0-------0-------0---| GTR
  |---0---0---0---0---0---0---0---0-|---0---0---0---0---0---0---0---0-|  1
  |-0-------0-------0-------0-------|-0-------0-------0-------0-------|
  |---------------------------------|---------------------------------|
  |                                                                   |
  |                                                                   |
  |---------------------------------|---------------------------------|
  |---------------------------------|---------------------------------|
  |---------------------------------|---------------------------------| GTR
  |---------------------------------|---------------------------------|  2
  |---------------------------------|---------3-------5-------2-------|
  |-5-------3-------1-------3-------|-5-------------------------------|


-> RIFF D x 4

-> RIFF B1 x 1 \
                > x 4
-> RIFF B2 x 1 /

-> RIFF C x 4

-> RIFF A1 x 1 \
-> RIFF B1 x 1  \ x 2
-> RIFF A2 x 1  /
-> RIFF B1 x 1 /

-> RIFF B1 x 1
-> RIFF B2 x 1
-> End on E Power Chord:  -----
                          -----
                          -----
                          -2---
                          -0---
                          -----

  SOLO:
  -----

  The solo is something along this line -


  |-17------15--17------15-----17---15b(1/4)~---15bfr-p12-----------|
  |---------------------------------------------------------15------|
  |-------------------------------------------------------------13/-|
  |-----------------------------------------------------------------|
  |-----------------------------------------------------------------|
  |-----------------------------------------------------------------|


  |-----------------19------20------21~-----------------21--22--22b-|
  |-----17----------20------21------22~-----------------------------|
  |/14--------------------------------------------------------------|
  |-----------------------------------------------------------------|
  |-----------------------------------------------------------------|
  |-----------------------------------------------------------------|

                                            {   3    }  {   3    }
  |-----22b~----17--22-p17------17~---------17--19--15--17--15------|
  |-------------------------18----------------------------------19--|
  |-----------------------------------------------------------------|
  |-----------------------------------------------------------------|
  |-----------------------------------------------------------------|
  |-----------------------------------------------------------------|

    {   3    }
  |-----------------------------------------------------------------|
  |-17--16--17------------------------------------------------------|
  |-------------------etc-...---------------------------------------|
  |-----------------------------------------------------------------|
  |-----------------------------------------------------------------|
  |-----------------------------------------------------------------|


Suggest correction
Give kudos to tab author, rate the tab!
1 2 3 4 5
comments
print report bad tab
guest
You may want to rate the tab now too:
select rating
Wanna post a correction for this tab? Suggest correction