Oops, an error
Loading. Please wait.

Heartwork Tab

version 1
version 1

Solo

Whole song

8,474 views 9 this week
no commentswrite comment
1 2 3 4 5
x 7
add to favorites
launch autoscroll
font size
0
reset
how to read this tab
guitar tuner
Autoscroll
slow
fast
+/-
esc
set tempo
stop
Help us to improve Ultimate-Guitar.com Take our survey!
×
Author
Difficulty
intermediate
First solo:  (w/harmony in diatonic thirds)
 s                             hp                     h
|----------------------------------------------------------------|
|/10-8-6-5~-5-5-6~-3-6-5~----------------------------------------|
|-------------------------2--5-454-------------------------------|
|----------------------------------5-4-2-------------------------|
|----------------------------------------5-4-2-------2-45-4-2----|
|----------------------------------------------5-4-5----------0--|

              b               b
 ----------------------3------------------8-7-5-------------------|
 -------3-5-6~-8^~-5-6---6-5-3-5^-3-------------8-7-5-------------|
 2~-4-5-----------------------------5-4~--------------7-6-4-------|
 -----------------------------------------------------------7-6-4-|
 -----------------------------------------------------------------|
 -----------------------------------------------------------------|
                                                ah
 7-5-3-------------------5-3-2----------------------|
 ------7-5-3-------------------5-3-2----------------|
 ------------6-4-2-------------------4-2-1----------|
 ------------------6-4-2-------------------4-2-1----|
 ------------------------------------------------2~-|
 ---------------------------------------------------|


Second solo:
|20-18-16-15~-16-18-20-18-16---------------------------|
|----------------------------20-18-16-15-16-15---------|
|----------------------------------------------17-16~--|
|------------------------------------------------------|
|------------------------------------------------------|
|------------------------------------------------------|


Third solo:
 b                     bb           b
|--------------------------------------------------------------|
|15^-15-13-12-13-12~-13^^-13-12--------------12----12-13-12-13-|
|-------------------------------13-14^-13-14----14-------------|
|--------------------------------------------------------------|
|--------------------------------------------------------------|
|--------------------------------------------------------------|

 ---13-15^-13~-----19-17-15-----15-17^-^-15-17~-|
 15-------------17----------17~-----------------|
 -----------------------------------------------|
 -----------------------------------------------|
 -----------------------------------------------|
 -----------------------------------------------|
Suggest correction
comments
print report bad tab
guest
You may want to rate the tab now too:
select rating
Wanna post a correction for this tab? Suggest correction