Oops, an error
Loading. Please wait.

Microwaved Uterogestation Tab

version 1
version 1

Whole song

Interactive

296 views 1 this week
no commentswrite comment
1 2 3 4 5
please rate
add to favorites
launch autoscroll
font size
0
reset
how to read this tab
guitar tuner
Autoscroll
slow
fast
+/-
esc
set tempo
stop
Help us to improve Ultimate-Guitar.com Take our survey!
×
Author
Tuning
Tabbers playing skills
B E A D F# B
intermediate ++
                    MICROWAVED UTEROGESTATION
                             As recorded by Carcass
                   (From the 1988 Album REEK OF PUTREFECATION)
B Tuning

   Intro
    Q=190
    G5 E#E5 Ab5      G5
   4/4
    Gtr I
                3x
||--------------||-|-------------||
||o------------o||-|----12s===7--||
||--------------||-|-------------||
||--------------||-|-------------||
||o-5--3-2--6--o||-|-5-----------||
||--3--1-0--4---||-|-3-----------||


   Verse
    N.C.
    Gtr I
                                    16x
||-----------------------------------||
||o---------------------------------o||
||-----------------------------------||
||-----------------------------------||
||o---------------------------------o||
||--3-3-3-3-1-1-0-0-1-1-1-1-4-4-4-4--||


   Chorus
    Q=180
    N.C.
    Gtr I
                             4x
||---------------------------||-|
||o-------------------------o||-|
||---------------------------||-|
||---------------------------||-|
||o---------------------2p1-o||-|
||--3-3-3-3-1-1-0-0-1-2------||-|


                                                       4x
||----------------------------------|------------------||
||o---------------------------------|-----------------o||
||----------------------------------|------------------||
||----------------------------------|------------------||
||o---------------------------------|-----------1h2p1-o||
||--3-3-3-3-1-1-0-0-1-1-1-1-4-4-4-4-|-3h5p0-3p1--------||


    Q=210
    N.C.
    Gtr I
                                                       4x
||----------------------------------|------------------||
||o---------------------------------|-----------------o||
||----------------------------------|------------------||
||----------------------------------|------------------||
||o---------------------------------|-----------1h2p1-o||
||--3-3-3-3-1-1-0-0-1-1-1-1-4-4-4-4-|-3h5p0-3p1--------||


   Modified Intro
    Q=190
    G5 E#E5 G#5       G5
   4/4
    Gtr I
                 3x
||---------------||-|-------------||
||o-------------o||-|----12s===7--||
||---------------||-|-------------||
||---------------||-|-------------||
||o-5--3-2--6---o||-|-5-----------||
||--3--1-0--4----||-|-3-----------||


   Verse
    N.C.
    Gtr I
                                     8x
||-----------------------------------||
||o---------------------------------o||
||-----------------------------------||
||-----------------------------------||
||o---------------------------------o||
||--3-3-3-3-1-1-0-0-1-1-1-1-4-4-4-4--||


 Outro Solo
  G5F5E5 G5F5E5 G5F5E5   G5F5E5 G5F5E5 G5
  Gtr II
|---------------------|------------------|
|---------------------|------------------|
|---------------------|------------------|
|---------------------|------------------|
|-5-3p2--5-3p2--5-3p2-|--5-3p2--5-3p2--5-|
|-3-1p0--3-1p0--3-1p0-|--3-1p0--3-1p0--3-|
|
| Gtr I
|---------------------|------------------|
|---------------------|------------------|
|---------------------|------------------|
|---------------------|------------------|
|---------------------|------------------|
|---------------------|------------------|


  F5E5 G5F5E5 G5F5E5   G5F5 E5 G5F5E5   G5F5 E5
|--------------------|-------------------------|
|--------------------|-------------------------|
|--------------------|-------------------------|
|--------------------|-------------------------|
|-3p2--5-3p2--5-3p2--|-5--3p2--5-3p2----5--3p2-|
|-1p0--3-1p0--3-1p0--|-3--1p0--3-1p0----3--1p0-|
|
|                              ~           ~~~
|--------------------|---------------21s==12---|
|--------------------|---12s===7---------------|
|--------------------|-------------------------|
|--------------------|-------------------------|
|--------------------|-------------------------|
|--------------------|-------------------------|


   G5F5E5 G5F5 E5 G5  F5E5 G5 F5E5  G5F5E5   G5F5E5  G5F5E5  G5  F5E5
  Gtr II
|-------------------|----------------------|--------------------------|
|-------------------|----------------------|--------------------------|
|-------------------|----------------------|--------------------------|
|-------------------|----------------------|--------------------------|
|--5-3p2--5--3p2--5-|-3p2---5-3p2---5-3p2--|-5-3p2---5-3p2---5---3p=2-|
|--3-1p0--3--1p0--3-|-1p0---3-1p0---3-1p0--|-3-1p0---3-1p0---3---1p=0-|
|
| Gtr I
|         ~~                                 ~~~~~~~~~~~~~~~~~
|-------------------|----------------------|--------------------------|
|----7s===9s10s9----|-9s===10s====9s==8----|-8s9s==7s5s6s==9s8s9s8s10s|
|-------------------|----------------------|--------------------------|
|-------------------|----------------------|--------------------------|
|-------------------|----------------------|--------------------------|
|-------------------|----------------------|--------------------------|


      G5F5E5  G5F5E5    G5F5 E5   G5 F5E5   G5 F5E5
|---------------------|----------------------------||
|---------------------|----------------------------||
|---------------------|----------------------------||
|---------------------|----------------------------||
|-----5-3p2---5-3p2---|-5--3p2-----5-3p2-----5-3p2-||
|-----3-1p0---3-1p0---|-3--1p0-----3-1p0-----3-1p0-||
|
| ~~~~~~~~~~~~~
|---------------------|----------------------------||
|-8s7s6s5s==3s======5s|=9s12s==15s12s9s==12s15s9s==||
|---------------------|----------------------------||
|---------------------|----------------------------||
|---------------------|----------------------------||
|---------------------|----------------------------||


     G5 F5E5  G5F5E5  G5  F5E5 G5F5E5
  Gtr II
|-----------------------|-----------------|-----*|
|-----------------------|-----------------|-----*|
|-----------------------|-----------------|-----*|
|-----------------------|-----------------|-----*|
|-----5-3p2---5-3p2---5-|-3p2--5-3p2------|-----*|
|-----3-1p0---3-1p0---3-|-1p0--3-1p0------|-----*|
|
| Gtr I
|                         >
|-----------------------|-----------------|-----*|
|-12s11s9s==8s5s7s==8s==|=3s=========7----|-----*|
|-----------------------|-----------------|-----*|
|-----------------------|-----------------|-----*|
|-----------------------|-----------------|-----*|
|-----------------------|-----------------|-----*|
Suggest correction
Give kudos to tab author, rate the tab!
1 2 3 4 5
comments
print report bad tab
guest
You may want to rate the tab now too:
select rating
Wanna post a correction for this tab? Suggest correction