Oops, an error
Loading. Please wait.

Mucopurulence Excretor Tab

358 views 1 this week
no commentswrite comment
1 2 3 4 5
3 more votes to show rating
add to favorites
launch autoscroll
font size
0
reset
how to read this tab
guitar tuner
Autoscroll
slow
fast
+/-
esc
set tempo
stop
Help us to improve Ultimate-Guitar.com Take our survey!
×
Difficulty
Tuning
novice
B E A D F# B
Riff 1 x 4

|----------------------------------|
|----------------------------------|
|----------------------------------|
|----------------------------------|
|-22222222222222222222255556666----|
|-00000000000000000000033334444----|

Riff 2 x 2

|-----------------------------------------------|
|-----------------------------------------------|
|-----------------------------------------------|
|-----------------------------------------------|
|-2--5--6--5--3--5--6--5--2--5--6--5--3----5----|
|-0--3--4--3--1--3--4--3--0--3--4--3--1----3----| 

Riff 2b x 2

|-----------------------------------------------------------|
|-----------------------------------------------------------|
|-----------------------------------------------------------|
|-----------------------------------------------------------|
|-222255556666555533335555666655552222555566665555--3---5---|
|-000033334444333311113333444433330000333344443333--1---3---|

Riff 1 x 2

Riff 2b x 2

Riff 1 x 2

Riff 2 x 2

End

|---------------|
|---------------|
|---------------|
|---------------|
|-2-2-2-2-2-----|
|-0-0-0-0-0-----|
Suggest correction
Give kudos to tab author, rate the tab!
1 2 3 4 5
comments
print report bad tab
guest
You may want to rate the tab now too:
select rating
Wanna post a correction for this tab? Suggest correction