Oops, an error
Loading. Please wait.

Oxidised Razor Masticator Tab

version 2
version 2

Whole song

Interactive

370 views 3 this week
no commentswrite comment
1 2 3 4 5
please rate
add to favorites
launch autoscroll
font size
0
reset
how to read this tab
guitar tuner
Autoscroll
slow
fast
+/-
esc
set tempo
stop
Help us to improve Ultimate-Guitar.com Take our survey!
×
Carcass - Oxidised Razor Masticator

. - palm mute

Intro 4x
|---------------------------------|
|---------------------------------|
|---------------------------------|
|---------------------------------|
|-2-2-2-2-3-4-3---2-2-2-2-6---3---|
|-0-0-0-0-1---1---0-0-0-0-4---1---|
    . . .             . . .

Riff 1 4x
|------------------------------------|
|------------------------------------|
|------------------------------------|
|------------------------------------|
|-----4444------------2222-----------|
|-0000----444411110000----44441111---|

Riff 2 4x
|------------------------------------|
|------------------------------------|
|------------------------------------|
|------------------------------------|
|-----------------44444444-----------|
|-0000777766663333--------33333333---|
  
Riff 3 2x
|---------------------------------------|
|---------------------------------------|
|---------------------------------------|
|---------------------------------------|
|---------------4-----------------------|
|-0000-3-6-0000---1-0000-3-6-0000-2-5---|
  ....     ....     ....     .... ? ?

Riff 1 4x
Riff 2 4x
Riff 3 2x

|-----------------------------------|
|-----------------------------------|
|-----------------------------------|
|-----------------------------------|
|-2-2-2-2-2-2-2-2-2-2-2-2-2-2-2-2---|
|-0-0-0-0-0-0-0-0-0-0-0-0-0-0-0-0---|
    . . . . . . . . . . . . . . .

Riff 4 4x
|---------------------------------------------------------------|
|---------------------------------------------------------------|
|---------------------------------------------------------------|
|-----------------6-6-5-5---------------------------------------|
|-2----2----6-6-5-4-4-3-3-4-4-3-2-2-2-2-2-2-2-2-2-2-2-2-2-2-2-2-|
|-0-00-0-00-4-4-3---------2-2-1-0-0-0-0-0-0-0-0-0-0-0-0-0-0-0-0-|
    ..   ..                       . . . . . . . . . . . . . . .

Riff 5 4x
|--------------------------------------------|  
|--------------------------------------------|  
|--------------------------------------------|  
|--------------------------------------------|
|------77777----------4444433333-------------|
|-00000-----4444433333----------2222211111---|

Riff 6 4x
|-------------------------------|  
|-------------------------------|  
|-------------------------------|
|------4\3--------3-3-----------|
|-2----2\1-5-5----1-1----4--3---|
|-0-00-----3-3-----------2--1---|
    ..

Riff 5 4x
Riff 6 4x
Intro 4x
Riff 1 4x
Riff 2 4x
Riff 3 2x

End FUCK!!
|-----|  
|-----| 
|-----|
|-----|
|-2---|
|-0---|
Suggest correction
Give kudos to tab author, rate the tab!
1 2 3 4 5
comments
print report bad tab
guest
You may want to rate the tab now too:
select rating
Please do not post tabs as comments. Select "correction" instead!