Oops, an error
Loading. Please wait.

Symposium Of Sickness Tab

version 2
version 2

Whole song

Interactive

715 views 1 this week
no commentswrite comment
1 2 3 4 5
3 more votes to show rating
add to favorites
launch autoscroll
font size
0
reset
how to read this tab
guitar tuner
Autoscroll
slow
fast
+/-
esc
set tempo
stop
Help us to improve Ultimate-Guitar.com Take our survey!
×
Difficulty
Tuning
intermediate
B E A D F# B
CARCASS
"Symposium of Sickness"
track 3 from Necroticism: Descanting the Insalubrious
tabbed by Fletcher Williams

B Standard tuning


+++++++++++++++++++++++++++++++++ ++++++++
--------------------------------- --------  --------|
--------------------------------- --------  --------|
1111--------44444444------------- --------  --------|
----2222---------------------3333 --------  --------|
--------3333--------------------- -------- _6---5-6-|
--------------------11114444----- 44444444 _4---3-4-|


          +++++++++++++++              +        +++++
---------------------------------------------------------|
---------------------------------------------------------|
---/5---------------------------/5-----------------------|
-------4~ 4-5-----4-----------------4~ -----4---------5--|
4-------------4-5---5-4-5-3--4---------3-2--2-3-----3----|
2-------------------------1--2---------1-0----1-0-2------|


   ++               ++
----------------------------------|
----------------------------------|
----------------------7-6---------|
---------------5------5-4-----5---|
4----5-7---5-4-3-4----------4-3-5-|
2--003-5---3-2---2--00------2---3-|


       ah     [ah-]                   +    +++++
-------------------------------------------------------|
-------------------------------------------------------|
---5-6---------4-5~ ----------6-/7-4-------------------|
4------5~ --------------------4-/5-2------------- p ---|
----------5-3--------5--7--4----------3-2--2-2-2-5^2-7-|
---------------------3--5--2----------1-0--0-0-0-3^0-5-|


+++++++++++++    +++++++       +++++++++++++    +++++++     ah
----------------------------------------------------------------|
----------------------------------------------------------------|
--------------------------------------------------------2---3~--|
----------------------------------------------------------2-----|
--3-4---------4--4-4-4-4-8-7-----3-4---------4--4-4-4-4---------|
2-----3-4-6-0-2--2-2-2-2-6-5---2-----3-4-6-0-2--2-2-2-2---------|


+++++++++++++++++++++++++++     ++++++++++++++++
---------------------------------------------------------------|
---------------------------------------------------------------|
--------222222223333--------------------22223333----6----------|
----4444------------4444--3-2~ -----4444--------5---4---7------|
------------------------3-----------------------3-------5---6--|
2222----------------------------2222------------------------4--|

      
slowcrashbend*(2nd only)                  1 & 3  2 & 4
+++++++++++               +               +       +
---------------------  -------------------------- ------ ------|
---------------------  --------------------5----- ------ ------|
--2-----3---5--------  --------------------2-5--- ------ ------|
3---3-4---4-3--------  ----5-------6---2--2--3--- --4--- ------|
---------------------  4--43-3---3-4---0--0------ 3-2--- --2~ -|
---------------------  2--2--1---1--------------- 1----- 1-----|


    +               +      +++++++++++
--------------- ---------- -----------------|
--------------- ---------- -----------------|
--------------- ---------- --2-----3---5----|
-----7/8-7----- ---------- 3---3-4---4-3----|
4---X5/6-5----- 4---X3/4-3 -----------------|
2---X---------- 2---X1/2-1 -----------------|

later, death-heads.

<< fwilliam@tiffin.edu >>

legend:
X ......fingers lay across string to produce a percussive
        when picked sound
p
^ ......pull-off
/ ......slide up
~ ......vibrato
?__? ...indicates a quick stop between notes
ah .....artificial harmonic (quickly tap right thumb on string
        in immediate succession with picking it)
+ ......palm muting
Suggest correction
Give kudos to tab author, rate the tab!
1 2 3 4 5
comments
print report bad tab
guest
You may want to rate the tab now too:
select rating
Wanna post a correction for this tab? Suggest correction