Oops, an error
Loading. Please wait.

Bell Clinks Tab

317 views 1 this week
no commentswrite comment
1 2 3 4 5
please rate
add to favorites
launch autoscroll
font size
0
reset
how to read this tab
guitar tuner
Tab Pro tools
  • play this tab
  • loop segment
  • change instrument
  • show fretboard
  • metronome
×
Best way to learn
"Bell Clinks"
Autoscroll
slow
fast
+/-
esc
set tempo
stop
Contributor
Lyrics from: Cardiacs Lyrics Organ (http://www.dept74.pwp.blueyonder.co.uk/lyrics_organ/)

G        Eb   F       Eb    G   Eb F Eb
Choosing my resources at random endeavours
G      Eb          Ab     Db
As the fool thinks so the bell clinks
Gb       Cb
Fall for my own pain
E                   B        E          B     Db  Ab
There's a tiny step from the sublime to the ridiculous
E              B   Eb           Ab
Thoroughly related which one am I?
Ab      E     Gb           E        Ab  E  Gb E
So much to be learned from this new age of reason
Ab      E       A          D
This is what it shouts and screams
    G    C
Loudly into my ear
F                C  F                 C
Every single man he has a fool in his sleeve
D       A  F
Whether he wants it there or not
C  E      A
It breeds sanity

[CHORUS]
Am       D         A           G
One step above the sublime it amounts
       C         D          E
To the feeling inside Jon rejects
      Am          D         A           Dm
Jon rejects every feeling inside, step above
       G           D      C F
The sublime to the ridiculous
Am         D             A         G
Dismissing thoughts in a head he refuse
   C             D         E
To accept taking logic within
       Am        D       A          G
Within logic within everything he refuse
   Cm    F   Cm      F
He fears his creepiest thoughts

[only bass for the first part]
Stupid soldier he's falling shot without purpose
Stupid soldier shot at random
Dies without respect
E                         B  E                       B    Db    Ab
Where's the harm in that? He should have kept a sane mind after all
E                 B   Eb       Ab
How can he be trusted after he dies?
Ab    E        Gb      E      Ab E   Gb   E
Level head sat proudly on the wisest shoulders
Ab        E       A          D
Stares an eyefull toward his sister
G        C
Smiles a wiliest smile
F                   C    F                 C         D    A
Isn't life a wheeze when treasure's in the trees and I possess
F                    C  E      A
Longer arms than you or anyone else?

(CHORUS)
Am       D         A           G
One step above the sublime it amounts
       C         D          E
To the feeling inside Jon rejects
      Am          D         A           Dm
Jon rejects every feeling inside, step above
       G           D      C F
The sublime to the ridiculous
Am         D             A         G
Dismissing thoughts in a head he refuse
   C             D         E
To accept taking logic within
       Am        D       A          Dm
Within logic within everything he refuse
   G            D              C    F
He believe in a thoughts and a laughter 
Db   Eb
Will reign

(GUITAR SOLO)

   F           Bb        D         F#          B
e------------------------14--------------14------------|
B------------------15-17----17-15--14-------14---------|
G--14----17-14-15---------------------15-------16------|
D-----15-------------------------------------------16--|
A------------------------------------------------------|
E------------------------------------------------------|

   F           Bb        D         F#          B       Em
e------------------------14--------------14----------------------|
B------------------15-17----17-15--14-------14-------------------|
G--14----17-14-15---------------------15-------16----------------|
D-----15-------------------------------------------16--14-16-17--|
A----------------------------------------------------------------|
E----------------------------------------------------------------|

(repeat 4 times, with rhythm guitar chords on last 2)

   Ab    E     Gb    E     Ab  E   Gb  E
e-----------14----------16-----16--14-----|
B--13-14-16----14----12----13----------14-|
G-----------------15----------------------|
D-----------------------------------------|
A-----------------------------------------|
E-----------------------------------------|

   Ab    E     A     D     G     C
e-----------14----14----------12-------|
B--13-14-16----14----15----12----13----|
G-----------------------14----------12-|
D--------------------------------------|
A--------------------------------------|
E--------------------------------------|

   F           C     F               C   D     A
e--------------------------------------------------|
B--------------------------------------------------|
G--14----------14-16-17-16-14-----14---------------|
D------10--15------------------17----15--16-16-14--|
A--------------------------------------------------|
E--------------------------------------------------|

   F              C        E        A
e---------------------------------------|
B---------------------------------------|
G-----------14-17-16-14----16-16-16-14--|
D--15----15-------------17--------------|
A-----15--------------------------------|
E---------------------------------------|

(CHORUS)
Am       D         A           G
One step above the sublime it amounts
       C         D          E
To the feeling inside Jon rejects
      Am          D         A           Dm
Jon rejects every feeling inside, step above
       G           D      C F
The sublime to the ridiculous
Am         D             A         G
Dismissing thoughts in a head he refuse
   C             D         E
To accept taking logic within
       Am        D       A          Dm
Within logic within everything he refuse
   G            D              C    F
He believe in a thoughts and a laughter 
Db   Eb
Will reign
Am       D         A           G
One step above the sublime it amounts
       C         D          E
To the feeling inside Jon rejects
      Am          D         A           Dm
Jon rejects every feeling inside, step above
       G           D      C F
The sublime to the ridiculous
Am         D             A         G
Dismissing thoughts in a head he refuse
   C             D         E
To accept taking logic within
       Am        D       A          G
Within logic within everything he refuse
   Cm    F   Cm      F Cm      G
He fears his creepiest thoughts
comments
We did not receive enough feedback on this tab! Please rate:
print report bad tab
1 2 3 4 5
I want to post or [tab]
guest
You may want to rate the tab now too:
select rating
Please do not post tabs as comments. Select "correction" instead!