Oops, an error
Loading. Please wait.

Hello Mr Minnow Aka News That Goes Round And Round Chords

233 views 1 this week
2 commentsread comments
1 2 3 4 5
excellent!
x 3
add to favorites
launch autoscroll
font size
0
reset
transpose
0
reset
display chords
guitar tuner
Tab Pro tools
  • play this tab
  • loop segment
  • change instrument
  • show fretboard
  • metronome
×
Best way to learn
"Hello Mr Minnow Aka News That Goes Round And Round"
Autoscroll
slow
fast
+/-
esc
set tempo
stop
Contributor
CARDIACS
Hello Mr Minnow
[AKA The Music Goes Round And Round; AKA News That Goes Round And Round]
The Special Garage Concerts Vol II
Transcribed by Luke Borley


   C                      Bb                    C                   Bb                  A

----------------------------------------------------------------------------------------------------|
---13----------------13---11--------------11---13--------------13---15--------------15--14----------|
-------12--12--12--------------10--10--------------12--12--12-----------15--15--15---------14--14---|
----------------------------------------------------------------------------------------------------|
----------------------------------------------------------------------------------------------------|
----------------------------------------------------------------------------------------------------|
  [intro octave up]
  [play x2]

   C             Bb                C        Bb         A           F#

-----------------------------------8---8----6----12----------------------------------------14--14---|
---8----8--8-----6--------9--------8---8----6---------10--------------------------------------------|
----------------------7------------9---9----7---------------9------11---11--------------------------|
-----------------------------------10--10---8-------------------------------------------------------|
--------------------------------------------------------------------------------9----9--------------|
----------------------------------------------------------------------------------------------------|
  [riff play x2]
[verse with riff]
C                 Bb             C          Bb            A             F#
oh fuck there's a friend of mine over there the chance of a-leaving but it won't take long
C                 Bb             C          Bb            A             F#
and say other thing to you just by chance and who'll be the next in line, I don't know

         C          G           E       B
so I'll get up and out and I'll see the world

[PLAY INTRO X2 AGAIN]

[verse with riff]
C                 Bb             C          Bb            A             F#
I'm the next in line for the next best thing on patters talk on you for a while
C                 Bb                        C          Bb            A             F#
something but the niow niow niow for the while it shows and so I can squish myself on the motorway

         D      A       E    B
but some of us wait for everyone


----------------------------------------------------------------------------------|
---13--------------13---11---------13-----------13--15----------14-------------14-|
-------12--12--12----------10--10------12-12-12---------15--15------14--14--14----|
----------------------------------------------------------------------------------|
----------------------------------------------------------------------------------|
----------------------------------------------------------------------------------|

----------------------------------------------------------------------------------------------------|
--------------15--------------15---17----------17--16-------------16--18-----------18-------------18|
---15-------------14--14--14-----------17--17-----------------------------18--18------17--17--17----|
------16--16-------------------------------------------18--18--18-----------------------------------|
----------------------------------------------------------------------------------------------------|
----------------------------------------------------------------------------------------------------|

----------------------------------------------|
------------------------------18--------------|
---13---------15------------------17--17------|
-------13--13-----17--17--17------------------|
----------------------------------------------|
----------------------------------------------|


C           A      E               C#         D      A  B
starting to go but I'm running too slow and I wonder if I have

A           C#            E           C#         D      A  B
starting to go though I'm running too slow and I wonder if I have

C             A             E           C#            F#    E     Eb       A
home but it's gone though I did nothing wrong and the music goes round and round

[play instrumental verse, then:]

----------------------------------------------------------------------------------|
---13--------------13---11---------13-----------13--15----------14-------------14-|
-------12--12--12----------10--10------12-12-12---------15--15------14--14--14----|
----------------------------------------------------------------------------------|
----------------------------------------------------------------------------------|
----------------------------------------------------------------------------------|

------------------------------------------------------------------------------------------|
---------------15------------17---------18--16-------------18---------18--------------18--|
---14-------------14--14--14----17--17---------17--17--17-----18--18------17--17--17------|
-------16--16-----------------------------------------------------------------------------|
------------------------------------------------------------------------------------------|
------------------------------------------------------------------------------------------|

------------------------------------------|
---16--------------16---18----------------|
-------15--15--15-----------17--17--------|
------------------------------------------|
------------------------------------------|
------------------------------------------|

C           A          E           C#         D      A  B
starting to go but I'm running too slow and I wonder if I have

A           C#            E           C#         D      A  B
starting to go though I'm running too slow and I wonder if I am

C             A             E           C#            F#    E    Eb        A
home but it's gone though I did nothing wrong and the music goes round and round


A5
you're the next in line for the next best thing but I don't know /
don't blame me, I'm just another dead bird on the motorway


  A                  G            C                 D
----------------------------------------------------14--------|
--14-------------14---12----------13----------13-------15-----|
-----14--14--14----------12--12------12--12---------------14--|
--------------------------------------------------------------|
--------------------------------------------------------------|
--------------------------------------------------------------|

[repeat from verse again]
comments
We did not receive enough feedback on this tab! Please rate:
print report bad tab
1 2 3 4 5
2 comments total.
0 reply
Oates_Moustache wrote on June 19 2013, 08:01 pm

Very nice!

0 reply
akunohana20151 wrote on January 21 2016, 06:40 pm

simply awesome job !

I want to post or [tab]
guest
You may want to rate the tab now too:
select rating
Please do not post tabs as comments. Select "correction" instead!