Oops, an error
Loading. Please wait.

Jamelia Tab

700 views 3 this week
1 commentread comment
1 2 3 4 5
please rate
add to favorites
launch autoscroll
font size
0
reset
how to read this tab
guitar tuner
Autoscroll
slow
fast
+/-
esc
set tempo
stop
Help us to improve Ultimate-Guitar.com Take our survey!
×
Difficulty
novice
-----------------------------------------------------------------------------
                             JAMELIA - Caribou
-----------------------------------------------------------------------------

Song - Jamelia
Artist - Caribou
Album - Swim

Tabbed by - TheController
E-mail - jharris300691@gmail.com

Tuning - Standard

e|--------|--------|--------|--------|
B|------5-|--------|--------|------4-|
G|---6----|-----6--|-----4--|---4----|
D|--------|---6----|---4----|--------|
A|-4------|--------|--------|-2------|
E|--------|-4------|-2------|--------|
  C#m      G#min    F#min    B


************************************

| /   slide up
| \   slide down
| h   hammer-on
| p   pull-off
| ~   vibrato
| +   harmonic
| x   Mute note
| b   Bend
| pb  Pre-bend
| br  Bend release
| pbr Pre-bend release
| brb Bend release bend

************************************
Suggest correction
What's this?
You can suggest a correction to this tab. Community and Mods will review your correction and vote to approve or reject it.
comments
We did not receive enough feedback on this tab! Please rate:
print report bad tab
1 2 3 4 5
1 comment total.
0 reply
splitloop 104 wrote on March 14 2014, 02:59 pm

F#min 2-4-2

guest
You may want to rate the tab now too:
select rating
Please do not post tabs as comments. Select "correction" instead!