Oops, an error
Loading. Please wait.

Odessa Bass

by Caribou
1,244 views 1 this week
no commentswrite comment
1 2 3 4 5
1 last vote to show rating
add to favorites
launch autoscroll
font size
0
reset
guitar tuner
Autoscroll
slow
fast
+/-
esc
set tempo
stop
Author
Difficulty
novice
-------------------------------------------------------------------------------
                             Odessa - Caribou
-------------------------------------------------------------------------------
Tabbed by: Flowwww

Worked by ear from this video https://www.youtube.com/watch?v=Yq_tDOFU5tY

It's a pretty cool, pretty simple bass line and a good tune. 

Tuning: Standard

Intro, Verse and Chorus

G|------------------------------------------------------------------|
D|------------------------------------------------------------------|
A|--4---4---4-4-----4-4-----4-----------3---3-3-----3-3-----3-------|
E|------------------------------------------------------------------|

G|---------------------------------------------------------------------------|
D|---------------------------------------------------------------------------|
A|--7h8---8---8-8-----8-8-----8----------------------------------------------|
E|-----------------------------------0h1---1---1-1-----1-1-----1-------------|

Bass breakdown 2:28-2:45

G|------------------------------------------------------------------|
D|------------------------------------------------------------------|
A|-----4-------4-------4----4-----------3-------3-------3---3-------|
E|------------------------------------------------------------------|

G|--------------------------------------------------------------------|
D|--------------------------------------------------------------------|
A|--7h8---8-------8-------8---8-----------8-------8-------8---8-------|
E|--------------------------------------------------------------------|


That's everything as far as I am aware, I hope you enjoy learning and playing this song.

Peace

Flowwww

| /  slide up
| \  slide down
| h  hammer-on
| p  pull-off
| ~  vibrato
| +  harmonic
| x  Mute note
===============================================================================
Suggest correction
Give kudos to tab author, rate the tab!
1 2 3 4 5
comments
print report bad tab
guest
You may want to rate the tab now too:
select rating
Wanna post a correction for this tab? Suggest correction