Oops, an error
Loading. Please wait.

A New Holiday Tab

88 views 15 this week
no commentswrite comment
1 2 3 4 5
please rate
add to favorites
launch autoscroll
font size
0
reset
how to read this tab
guitar tuner
Tab Pro tools
  • play this tab
  • loop segment
  • change instrument
  • show fretboard
  • metronome
×
Best way to learn
"A New Holiday"
Autoscroll
slow
fast
+/-
esc
set tempo
stop
Contributor
Difficulty
novice
Tabbed by: weydenn23
Tuning: half-step down

Well, I found tabs but I think it could be more accurate.
I think originally Carissa's Wierd played this song with
a half-step down tuning.
Enjoy!

Intro:

   C
e|-----------------|
B|-0-1-0-1-0-1-0-1-|
G|-0-0-0-0-0-0-0-0-|
D|-----------------|
A|-----------------|
E|-----------------| {x2}

Verse:

   C               F
e|---------------------------------|
B|-0-1-0-1-0-1-0-1-0-1-0-1-0-1-0-1-|
G|-0-0-0-0-0-0-0-0-2-2-2-2-2-2-2-2-|
D|-2---2---2---2---3-3-3-3-3-3-3-3-|
A|-3---3---3---3-------------------|
E|---------------------------------| {x2)


   Am      G       C        F         Am       G         C (continue to strum C chord)
e|---------3--------------------------------------------------|
B|-1-------3-------1--------1---------1--------3---------1----|
G|-2-------0-------0--------2---------2--------0---------0----|
D|-2-------0-------2--------3---------2--------0---------2----|
A|-0-------2-------3------------------0--------2---------3----|
E|---------3-----------------------------------3--------------|




Chorus:

   F               C               F             
e|-------------------------------------------------|
B|-1-1-1-1-1-1-1-1-1-1-1-1-1-1-1-1-1-1-1-1-1-1-1-1-|
G|-2-2-2-2-2-2-2-2-0-0-0-0-0-0-0-0-2-2-2-2-2-2-2-2-|
D|-3-3-3-3-3-3-3-3-2-2-2-2-2-2-2-2-3-3-3-3-3-3-3-3-|
A|-----------------3-3-3-3-3-3-3-3-----------------|
E|-------------------------------------------------|

   G       Fadd9            C
e|-3-3-3-3-3-3-3-3--|      ---|
B|-3-3-3-3-1-1-1-1--|      -1-|
G|-0-0-0-0-2-2-2-2--|      -0-|
D|-0-0-0-0-3-3-3-3--|      -2-|
A|-2-2-2-2----------|      -3-|
E|-3-3-3-3----------| (x8) ---|








comments
We did not receive enough feedback on this tab! Please rate:
print report bad tab
1 2 3 4 5
I want to post or [tab]
guest
You may want to rate the tab now too:
select rating
Please do not post tabs as comments. Select "correction" instead!