Oops, an error
Loading. Please wait.

Heather Rhodes Tab

version 3
version 3

Whole song

Interactive

2,333 views 9 this week
1 commentread comment
1 2 3 4 5
excellent!
x 5
add to favorites
launch autoscroll
font size
0
reset
how to read this tab
guitar tuner
Autoscroll
slow
fast
+/-
esc
set tempo
stop
Help us to improve Ultimate-Guitar.com Take our survey!
×
Author
Difficulty
Tuning
novice
D# G# C# F# A# D#
Looked at the others and they weren't completely right, so I made some adjustments 
and I'm certain this is right:

Tuned down one half step

Main
e--------------------------|
B--------------------------|
G--------------------------|
D---6--6--7--0--6--6--4--4-|
A--7--7--7--7--4--4--2--2--|
E--------------------------|


End  (3x)         
e|------------------- |
B|.-------0----------.|
G|------2---2-------- |
D|----2-------2------ |
A|.-0-----------0----.|
E|------------------- |


e|------------------------- |
B|--------0----(0)(0)--0--- |
G|------2---2---2--0---1--- |
D|----2---------2--0---2--- |
A|--0-----------0------2--- |
E|---------------------0--- |
Suggest correction
comments
print report bad tab
1 comment total.
0 reply
yousaid 10 wrote on October 10 2015, 04:51 pm

e--------------------------|
B--------------------------|
G--------------------------|
D---6--6--7--7--6--6--4--4-|
A--7--7--7--7--4--4--2--2--|
E--------------------------|

you may have made a mistake with typing a 0 instead of a 7 on the second fret there. it definitely sounds like a second D 7th rather than an open string.
otherwise perfect tab, thanks!

guest
You may want to rate the tab now too:
select rating
Please do not post tabs as comments. Select "correction" instead!