Oops, an error
Loading. Please wait.

You Should Be Hated Here Tab

2,198 views 9 this week
no commentswrite comment
1 2 3 4 5
accurate
x 4
add to favorites
launch autoscroll
font size
0
reset
how to read this tab
guitar tuner
Autoscroll
slow
fast
+/-
esc
set tempo
stop
Help us to improve Ultimate-Guitar.com Take our survey!
×
Author
Tuning
D# G# C# F# A# D#
                             You Should Be Hated Here - Carissa's Wierd
-------------------------------------------------------------------------------
Tabbed by: ivadell
E-mail: sadstyle36@hotmail.com

Tuning: Standard, 1/2 step down

Part 1 (x2)
e|------------------------------------------------------------------------------------------|
B|------------------------------------------------------------------------------------------|
G|-------0-----------0-----------0-----------0---------0----------0----------0----------0---|
D|----10---10-----10---10-----10---10-----10---0----10---10----10---10----10---10----10---0-|
A|-12----------10----------12----------10---------8----------7----------8----------7--------|
E|------------------------------------------------------------------------------------------|

(to stand up...)
e|---------------------------------------------------------------------------------------|
B|---------------------------------------------------------------------------------------|
G|-----0--------0---------0---------0-----------0----------0----------0----------0-------|
D|---9---9----9---9----10---10---10---10-----12---12----12---12----12---12----12---12--0-|
A|-7--------7--------8---------8----------10---------10---------10---------10------------|
E|---------------------------------------------------------------------------------------|

-----------
Part 1 (x2)
-----------

(i'm only here to fall apart...)
e|------------------------------------------------------------------|
B|-----------------------------0--------------------------------0---|
G|---5---5---5---5---5---5---5---0----5---5---5---5---5---5---5---0-|
D|-----5-------5-------5----------------5-------5-------5-----------|
A|-3-------3-------3-------3--------7-------7-------7-------7-------|
E|------------------------------------------------------------------|

--------------------------------------|
-----------------------------0--------|
---5---5---5---5---5---5---5---0------|
-----5-------5-------5--------------5-|
-0-------0-------0-------0----------5-|
------------------------------------3-|


(everything no one knows...)
e|---------------------------------|
B|---------------------------------|
G|---------------------------------|
D|-10---9---7---5---10---9---7---5-|
A|-10---7---7---5---10---7---7---5-|
E|-8----0---5---3---8----0---5---3-|


(and it all comes down...)
e|------------------------------|
B|------------------------------|
G|------------------------------|
D|-3---7---5---3---7---5-----10-|
A|-3---7---5---3---7---5-----10-|
E|-1---5---3---1---5---3-----8--|
Suggest correction
comments
print report bad tab
guest
You may want to rate the tab now too:
select rating
Please do not post tabs as comments. Select "correction" instead!