Oops, an error
Loading. Please wait.

Bad Mamma Jamma Bass Tab

12,885 views 24 this week
no commentswrite comment
1 2 3 4 5
excellent!
x 3
add to favorites
launch autoscroll
font size
0
reset
guitar tuner
Tab Pro tools
  • play this tab
  • loop segment
  • change instrument
  • show fretboard
  • metronome
×
Best way to learn
"Bad Mamma Jamma"
Autoscroll
slow
fast
+/-
esc
set tempo
stop
Contributor
Difficulty
novice
-------------------------------------------------------------------------------
			     Bad Mamma Jamma - Carl Carlton
-------------------------------------------------------------------------------

Tabbed By : Memorex09
e-mail: alexhill1992@Aol.com

Tuning: Standerd (E,A,D,G)

G|12,14,12--12---------------------------------------------------------------|
D|--------14--14,12----------------------------------------------------------|
A|-----------------14-0-0-2-2-3---5-0-5-7-7-0---0-------------3-0-3----3~2~--|
E|------------------------------------------------3-3-5-5-7------------------|

G|---------------------------------------------------------------------------|
D|---------------------------------------------------------------------------|
A|0-0-2-2-3---5-0-5-7-7-0---0-------------3-0-3----3~2~---(Repeat x3)--------| 
E|----------------------------3-3-5-5-7--------------------------------------|

G|---------------------------------------------------------------------------|
D|---------------------------------------------------------------------------|
A|0-0-2-2-3--5--5--5---0------------3--3--3~2~-----------(Repeat x1)---------| (verse)
E|-----------------------3-3-5-5-7-------------------------------------------|

G|---------------------------------------------------------------------------|
D|---------------------------------------------------------------------------|
A|0-0-2-2-3---5-0-5-7-7-0---0-------------3-0-3----3~2~---(Repeat x3)--------| (Bridge and Chorus)
E|----------------------------3-3-5-5-7--------------------------------------|

G|---------------------------------------------------------------------------|
D|---------------------------------------------------------------------------|
A|----------------------(verse)----------------------------------------------|
E|---------------------------------------------------------------------------|

G|---------------------------------------------------------------------------|
D|---------------------------------------------------------------------------|
A|----------------------(Bridge and Chorus)----------------------------------|
E|---------------------------------------------------------------------------|

The instramental in the middle is just the bridge and the chorus, and so is the one at the end. 
The verses are the same. 


| /  slide up
| \  slide down
| h  hammer-on
| p  pull-off
| ~  vibrato
| +  harmonic
| x  Mute note
============http://en.wikipedia.org/wiki/Carl_Carlton
comments
We did not receive enough feedback on this tab! Please rate:
print report bad tab
1 2 3 4 5
I want to post or [tab]
guest
You may want to rate the tab now too:
select rating
Please do not post tabs as comments. Select "correction" instead!