Oops, an error
Loading. Please wait.

Kung Fu Fighting Bass Tab

version 1
version 1

Whole song

Interactive

11,780 views 30 this week
1 commentread comment
1 2 3 4 5
excellent!
x 4
add to favorites
launch autoscroll
font size
0
reset
guitar tuner
Tab Pro tools
  • play this tab
  • loop segment
  • change instrument
  • show fretboard
  • metronome
×
Best way to learn
"Kung Fu Fighting"
Autoscroll
slow
fast
+/-
esc
set tempo
stop
Contributor
Difficulty
novice
----------------------------------------------------------------------------
                         Kung Fu Fighting Carl Douglas
----------------------------------------------------------------------------

Tabbed by: Chili Seb

Intro
G|-------------------------------------------------------------------------|
D|-------------------------------------------------------------------------|
A|-------------------------------------------------------------------------|
E|-------------------------------------------------------------------------|
  Chorus

G|-------------------------------------------------------------------------|
D|--------------------------1/22-2-222--1/22-2-222-------------------------|
A|--4/55-5-555--4/55-5-555--------------------------4/55-5-555--4/55-5-555-|
E|-------------------------------------------------------------------------|
                                   Verse
G|-------------------------------|--------------------------------------|
D|-1/22-2-222--1/22-2-222-2-2-2--|--------------------------------------|
A|-------------------------------|--4/55-5-554--4/55-5-554--4/55-5-554--|
E|-------------------------------|--------------------------------------|

G|--------------------------------------------------------------|
D|--------------------------------------------------------------|
A|--4/55-5-554--4/55-5-554--4/55-5-554--4/55-5-554--4/55-5-554--|
E|--------------------------------------------------------------|

  Chorus

G|-------------------------------------------------------------------------|
D|---------------------------1/22-2-222--1/22-2-222------------------------|
A|--4/55-5-555--4/55-5-555---------------------------4/55-5-555--4/55-555--|
E|-------------------------------------------------------------------------|
                                   Verse
G|--------------------------------|--------------------------------------|
D|--1/22-2-222--1/22-2-222-2-2-2--|--------------------------------------|
A|--------------------------------|--4/55-5-554--4/55-5-554--4/55-5-554--|
E|--------------------------------|--------------------------------------|


G|--------------------------------------------------------------|
D|--------------------------------------------------------------|
A|--4/55-5-554--4/55-5-554--4/55-5-554--4/55-5-554--4/55-5-554--|
E|--------------------------------------------------------------|
Bridge

G|-------------------------------------------------------------------------|
D|--------------------------1/22-2-222--1/22-2-222-------------------------|
A|--4/55-5-555--4/55-5-555--------------------------4/55-5-555-4/55-5-555--|
E|-------------------------------------------------------------------------|
                                  
G|--------------------------------|
D|--1/22-2-222--1/22-2-222-2-2-2--|
A|--------------------------------|
E|--------------------------------|
  Chorus

G|-------------------------------------------------------------------------|
D|--------------------------1/22-2-222--1/22-2-222-------------------------|
A|--4/55-5-555--4/55-5-555--------------------------4/55-5-555-4/55-5-555--|
E|-------------------------------------------------------------------------|

G|--------------------------------|
D|--1/22-2-222--1/22-2-222-2-2-2--|
A|--------------------------------|
E|--------------------------------|
comments
print report bad tab
1 comment total.
0 reply
jimi maiden wrote on June 4 2008, 03:58 pm

This damn good mann!!! The sun will rise over you after this mann!!!

Must peace be with ya \-)

I want to post or [tab]
guest
You may want to rate the tab now too:
select rating
Please do not post tabs as comments. Select "correction" instead!