Oops, an error
Loading. Please wait.

Honey Dont Tab

version 1
version 1

Whole song

Interactive

22,036 views 57 this week
no commentswrite comment
1 2 3 4 5
x 4
add to favorites
launch autoscroll
font size
0
reset
how to read this tab
guitar tuner
×
Best way to learn
"Honey Dont"
Autoscroll
slow
fast
+/-
esc
set tempo
stop
Author
-------------------------------------------------------------------------------|
-------------------------------------------------------------------------------|
-------------------------------------------------------------------------------|

Honey don't-Carl Perkins

Standard tuning
Guitar 1 Electric
Guitar 2 Acoustic strums chords througout song.

Intro

Guitar 1                Strum this E
e---0--0-0--0--0-0--0--0-0-0---|
B--------------------------0---|
G-/4--4-4-\3--3-3-\2--2-2-\1---|
D--------------------------2---|
A--------------------------2---|
E--------------------------0---|


Verse
  E         C         E         C         B7
e-0---------0---------0---------0---------2--2---2--2---|
B-0---------1---------0---------1---------0---0---0--0--|
G-1-----1-1-0-----0-0-1-----1-1-0-----0-0-2-----2-----2-|
D-2-----2-2-2-----2-2-2-----2-2-2-----2-2-1-------------|
A-2-----2-2-3-----3-3-2-----2-2-3-----3-2-2-------------|
E-0-----0-0-0-----0-0-0-----0-0-0-----0-0---------------|

Chorus
  E
e-----------------------------------------------------------------|
B-----------------------------------------------------------------|
G-----------------------------------------------------------------|
D-----------------2-2-----------------------------2-2-------------|
A---------2-2-4-4-----4-4-2-2-------------2-2-4-4-----4-4-2-2-----|
E-0-0-4-4---------------------4-4-0-0-4-4---------------------4-4-|
   A                                E
e-----------------------------------------------------------------|
B-----------------------------------------------------------------|
G-----------------2-2---------------------------------------------|
D---------2-2-4-4-----4-4-2-2---------------------2-2-------------|
A-0-0-4-4---------------------4-4---------2-2-4-4-----4-4-2-2-----|
E---------------------------------0-0-4-4---------------------4-4-|
  B7                         E
e---------------------------------------------------|
B---------------------------------------------------|
G----2----------------------------------------------|
D-------------------------------------------2-2---2-|
A-2----------2---0------------------2-2-4-4-----4---|
E-------2------------4---2--0-0-4-4-----------------|

Repeat both and ad variations


Solo
  E                    C
e-12--12--12-12-12\---8--8--8--8-8-8\--|
B-12--12--12-12-12\---8--8--8--8-8-8\--|
G--------------------------------------|
D--------------------------------------|
A--------------------------------------|
E--------------------------------------|


   E                    C               B7
e-12--12--12-12-12\---8--8--8--------------------------|
B-12--12--12-12-12\---8--8--8--------------------------|
G------------------------------------------------------|
D------------------------------------------------------|
A------------------------------------------------------|
E--------------------------------------7-7\5-5\4-4\2-2-|

  E
e--------------------------------------------------------------|
B--------------------------------------------------------------|
G--------------------------------------------------------------|
D--------------------------------------------------------------|
A---------2-2------------2-2-4-4----------2-2------------2-2---|
E-0-0-4-4-----4--0-0-4-4----------0-0-4-4-----4--0-0-4-4-----4-|

    A                                 E
e------------------------------------------------------------|
B------------------------------------------------------------|
G------------------------------------------------------------|
D---------2-2------------2-2---------------------------------|
A-0-0-4-4-----4--0-0-4-4-----4----------2-2------------2-2---|
E-------------------------------0-0-4-4-----4--0-0-4-4-----4-|

 B7                                E
e---------------------------------------------------------|
B---------------------------------------------------------|
G---------------------------------------------------------|
D--------------------------4b5-2------------------2-2---2-|
A-2-2-4-4-4/5-5-4--2-2-4-4----------------2-2-4-4-----4---|
E---------------------------------0-0-4-4-----------------|


Repeat the verse,chorus,solo and chorus again

Outro

e-------------------------0--|
B-/7-7-5-5-4-4-2-2-0-3-0--2--|
G-/8-8-6-6-5-5-3-3-1-1-1--1--|
D-/7-7-7-7-6-6-4-4-2-0-2--2--|
A-/9---7---6---4---2-2-2--2--|
E-/7---5---4---2---0-0-0--0--|


That is it. It's not perfect but it is close

here is the order

Intro
verse
chorus
verse
chorus
solo
verse
chorus
solo
chorus
outro
Suggest correction
comments
print report bad tab
guest
You may want to rate the tab now too:
select rating
Wanna post a correction for this tab? Suggest correction