Oops, an error
Loading. Please wait.

Matchbox Tab

version 1
version 1

Whole song

Interactive

12,009 views 30 this week
no commentswrite comment
1 2 3 4 5
please rate
add to favorites
launch autoscroll
font size
0
reset
how to read this tab
guitar tuner
Autoscroll
slow
fast
+/-
esc
set tempo
stop
Help us to improve Ultimate-Guitar.com Take our survey!
×
  well here's my tab,standard tuning

          "MATCHBOX" by Carl Perkins

intro goes:
|-------------------|-------------------|
|-------------------|-------------------|
|---2--2----2--2----|--2--2----2--2-----|
|---2--2----2--2----|--2--2----2--2-----|
|---0--0----0--0----|--0--0----0--0-----|
|--------3b------3b-|-------3b-------3b-|

sittin here wonderin'woulda matchbox hold ma 
|----------------------------------------|
|----------------------------------------|
|----------------------------------------|
|--2---------2---------2---------2-------|
|--0---3h4---0---3h4---0---3h4---0---3h4-|
|----------------------------------------|

clothes?
|-------------------|-------------------|
|-------------------|-------------------|
|---2--2----2--2----|--2--2----2--2-----|
|---2--2----2--2----|--2--2----2--2-----|
|---0--0----0--0----|--0--0----0--0-----|
|--------3b------3b-|-------3b-------3b-|

yah sittin' here wonderin' woulda matchbox hold ma
|----------------------------------------|
|----------------------------------------|
|--2---------2---------2---------2-------|
|--0---3h4---0---3h4---0---3h4---0---3h4-|
|----------------------------------------|
|----------------------------------------|

clothes?
|-------------------|-------------------|
|-------------------|-------------------|
|---2--2----2--2----|--2--2----2--2-----|
|---2--2----2--2----|--2--2----2--2-----|
|---0--0----0--0----|--0--0----0--0-----|
|--------3b------3b-|-------3b-------3b-|

aint got no matches,gotta long way ta
|----------------------------------------|
|----------------------------------------|
|----------------------------------------|
|----------------------------------------|
|--2---------2---------2---------2-------|
|--0---3h4---0---3h4---0---3h4---0---3h4-|

go!
|-------------------|-------------------|
|-------------------|-------------------|
|---2--2----2--2----|--2--2----2--2-----|
|---2--2----2--2----|--2--2----2--2-----|
|---0--0----0--0----|--0--0----0--0-----|
|--------3b------3b-|-------3b-------3b-|

and the solo's in the key of A something like:
|---5--5---7--5--------|----5-----5-----5----5----|
|---5--5--------8--5-5-|----5-----5-----5----5----|
|----------------------|-7b----7b----7b---7b------|
|----------------------|--------------------------|
|----------------------|--------------------------|
|----------------------|--------------------------|
something, but the song ends with this
|-------------------------|---|
|-------------------------|---|
|-------------------------|-2-|
|---------------5-6-7~~~~-|-2-|
|-------4--5--7-----------|-0-|
|---5-5-------------------|---|

and that's about all, just trying to help.

-Bertman (marshmellow!)
Suggest correction
Give kudos to tab author, rate the tab!
1 2 3 4 5
comments
print report bad tab
guest
You may want to rate the tab now too:
select rating
Wanna post a correction for this tab? Suggest correction