Oops, an error
Loading. Please wait.

Ikay Nandito Na chords

1,900 views 51 this week
no commentswrite comment
1 2 3 4 5
2 more votes to show rating
add to favorites
×
Save as Personal and add changes to this tab that will be seen only by you. Learn more ›
×
You can save this tab as Personal to edit and correct it or add notes. All changes will be seen only by you. Learn more »
launch autoscroll
font size
0
reset
transpose
0
reset
simplify chords
display chords
guitar tuner
edit
Autoscroll
slow
fast
+/-
esc
set tempo
stop
Author
Strumming
There is no strumming pattern for this song yet. and get +5 IQ
=-=-=-=-=-=-=-=-=-=-=-=-=-=-=-=-=-=-=-=-=-=-=-=-=-=-=-=-=-=-=-=-=-=-=-=-=-=-=-=-=-=-=-=-=-=-=-=-=-=-=-=-=-=

                                      Ika'y Nandito Na - Carlo Capulong

=-=-=-=-=-=-=-=-=-=-=-=-=-=-=-=-=-=-=-=-=-=-=-=-=-=-=-=-=-=-=-=-=-=-=-=-=-=-=-=-=-=-=-=-=-=-=-=-=-=-=-=-=-=

Tabbed by: Jan Vincent Bucaoto
Email: jvbucaoto@gmail.com

-----------------------------------------------------------------------------------------------------------

Standard tunning
1st Fret capo

[Chords]

G    - 330023
D/F# - 332002
Em7  - 330220
Em   - 000220
C    - 01023X
Bm   - 12331X
Am   - 01220X
D    - 2320XX

[Intro]

e|----------------|--------------|--------------------------|
B|------------0---|--------0-----|---------3-1-0------------|
G|--------------2-|------2---2-0-|-------0-0----------0h2p0-|
D|----0-0---0-----|----0---------|-----2---0--------0-------|
A|----------------|--------------|---2-----2------2---------|
E|-3------3-------|-2------------|-0------------------------|

e|-------------------|--------------------------------------|
B|-------0---------0-|-1-0-0------------12+-----------------|
G|-----0---2-----0---|-2-------0--2---------12+-------------|
D|---2---------0-----|-2------------------------------------|
A|-3---------2-------|-0-----0------------------------------|
E|-------------------|--------------------------------------|


[Verse]

G       D/F#  Em7   D/F#          C    Bm          Am  D
Kay tagal           kong naghintay sa iyong pagdating.
G       D/F#  Em7   D/F#           C       Bm         Am  D
Kay tagal           kong pinagdasal na sana sa buhay ko, ika'y dumating


[Pre-Chorus]

Em  D           C
    Salamat at ika'y nandito na.
Am  C           D
    Salamat at ika'y nandito na.


[Chorus]

G       D/F#        Em7  D/F#        C        Bm         Am      D
Siguro ay ikaw na nga,   ang babae na sa akin ay nakatadhana, nakatadhana.
G            D/F#           Em7          D/F#           C        Bm       Am
Ikaw ang sagot sa aking dasal bigay ka sakin ng Maykapal, sana ika'y maniwala,
D                              G   D/F#   Em7   D/F#    C       Bm    Am        D
Na tayo'y para sa isa't isa. isa't isa..                isa't isa..      tayo'y para sa
isa't isa


[Bridge]

Em    D           C
Papatunayan ko sayo..
Em           D        C
Ang pagibig ko ay totoo.
Em     D       C
Papatunayan ko..
     F                 C       D
Na ika'y para sakin at ako ay para sayo..


[Chorus]

(Lalala lalala)
G       D/F#        Em7  D/F#        C        Bm         Am      D
Siguro ay ikaw na nga,   ang babae na sa akin ay nakatadhana, nakatadhana.
G            D/F#           Em7          D/F#           C        Bm       Am
Ikaw ang sagot sa aking dasal bigay ka sakin ng Maykapal, sana ika'y maniwala,
D                              G  D/F#  Em7  D/F#  C       Bm    Am        D
Na tayo'y para sa isa't isa. isa't isa..          isa't isa..      tayo'y para sa isa't isa


[Verse]

G       D/F#  Em7   D/F#          C    Bm          Am  D
Kay tagal           kong naghintay sa iyong pagdating.
G       D/F#  Em7   D/F#           C       Bm         Am  D
Kay tagal           kong pinagdasal na sana sa buhay ko, ika'y dumating


G       D/F#  Em7   D/F#          C    Bm          Am  D
Kay tagal           kong naghintay sa iyong pagdating.


************************************
| +   Harmonic
| h   Hammer-on
| p   Pull-off
************************************

            
            
Suggest correction
Creating personal tab
Creating personal tab
You can edit any tab online and save it as your Personal.

You can edit, replace or remove any tab part or add personal notes – all changes will be seen only by you.

Personal tabs can be accessed anytime from any device, even offline.
Learn more »
Give kudos to tab author, rate the tab!
1 2 3 4 5
comments
print report bad tab
guest
You may want to rate the tab now too:
select rating
Wanna post a correction for this tab? Suggest correction