Oops, an error
Loading. Please wait.

Sisana Chords

250 views 27 this week
no commentswrite comment
1 2 3 4 5
3 more votes to show rating
add to favorites
launch autoscroll
font size
0
reset
transpose
0
reset
simplify chords
display chords
guitar tuner
Autoscroll
slow
fast
+/-
esc
set tempo
stop
Help us to improve Ultimate-Guitar.com Take our survey!
×
Author
=-=-=-=-=-=-=-=-=-=-=-=-=-=-=-=-=-=-=-=-=-=-=-=-=-=-=-=-=-=-=-=-=-=-=-=-=-=-=-=-=-=-=-=-=-=-=-=-=-=-=-=-=-=

                                      Sisana - Carlo Capulong

=-=-=-=-=-=-=-=-=-=-=-=-=-=-=-=-=-=-=-=-=-=-=-=-=-=-=-=-=-=-=-=-=-=-=-=-=-=-=-=-=-=-=-=-=-=-=-=-=-=-=-=-=-=

Tabbed by: Jan Vincent Bucaoto
Email: jvbucaoto@gmail.com

-----------------------------------------------------------------------------------------------------------

Standard tunning
1st Fret capo

[Chords]

G     - 330023
D/F#  - 332002
Em7   - 330220
Cadd9 - 330230
D     - 2320XX

[Intro]

e|---------3-------------|-------0-------|----------------|------------|
B|-1-0-1-0-3--3--0-1-3-3-|-----3---3---0-|-----3--1-0---1-|-------0----|
G|---------0--0----------|---2-------2---|-----0------0---|-----0----2-|
D|---------0--0----------|---------------|-----2----------|---2------0-|
A|---------2-------------|---------------|---2------------|-3--------0-|
E|-3-------3-------------|-2-------------|-0--------------|------------|

G - D/F# - Em7 - Cadd9 - D (Strum once)

e|-2h3-2---|
B|-------3-|
G|---------|
D|---------|
A|---------|
E|---------|

[Verse]

G           D/F#         Em7          Cadd9 - D
 Hindi makalapit ang damdamin ay pinipilit
G          D/F#      Em7         Cadd9 - D
 Hindi makausap ang pusong nakikiusap
Em7    D/F#        Cadd9       D     
   Na mapansin itong aking damdamin
Em7         D/F#         Cadd9 - D (Strum Once)
   Yan ang tangi kong dalangin

[Chorus]

e|------------------------|-------0-------|-------0-------|---------------3--|
B|-0-1-0-3---3--0-0-1-3-3-|-----3---3---0-|-----3---3---0-|-------0------3---|
G|------------------------|---2-------2---|---0-------2---|-----0------2-----|
D|------------------------|---------------|---------------|---2------0-------|
A|------------------------|---------------|---------------|-3----------------|
E|---------3--------------|-2-------------|-0-------------|------------------|

``Sana    ay   mayakap kita         At mahawakan        ang iyong mga kamay

e|---------3-------|---------3-------|---------3-------|-------3----|
B|-----3-----3---3-|-----3-----3---3-|-----3-----3---3-|------------|
G|---0---0-----0---|---2---2-----2---|---0---0-----0---|-----0----2-|
D|-----------------|-----------------|-----------------|---2------0-|
A|-----------------|-----------------|-2---------------|-3----------|
E|-3---------------|-2---------------|-----------------|------------|
           Masilayan ang iyong ngiti nasa puso          ko'y nagpapatili

G - D/F# - Em7 - Cadd9 - D (Strum once)

e|-2h3-2---|
B|-------3-|
G|---------|
D|---------|
A|---------|
E|---------|

[Verse]

G           D/F#       Em7
 Hindi kaya napapansin
    Cadd9  D
Ang aking pagtingin
G           D/F#     Em7
 Hindi kaya nakikita
        Cadd9  D
Ito ang aking paraan
Em7        D/F#        Cadd9       D  
     Para mapansin itong aking damdamin
Em7           D/F#         Cadd9 - D
     Yan ang tangi kong dalangin

[Chorus]

      G            D/F#
Sana ay mayakap kita
        Em7        Cadd9 - D
At mahawakan ang iyong mga kamay
G     D/F#               Em7           Cadd9 - D
 Masilayan ang iyong ngiti nasa puso ko'y nagpapatili

[Refrain]

Em7        D/F#      Cadd9
   May pag-asa pa kaya na
   D           Em7
Magiging tayo pa
         D/F#         Cadd9
O hanggang dito na lang ako
     D              G - D/F#
nakatitig lamang sayo. Ohhhh Whooo Ohhh
   Em7 - Cadd9 - D
Sayo Ohhh Whooo Ohhh
   G - D/F#
Sayo Whooo Ohhh
   Em7         Cadd9 - D
Sayo Ohhh nakatitig lang

[Pre-Chorus]

 G             D/F#
Paano sisimulan kung masasaktan lang
 Em7           Cadd9 - D
Paano sisimulan
 G             D/F#
Paano sisimulan kung masasaktan lang
 Em7           Cadd9 - D
Paano sisimulan


[Chorus]

      G            D/F#
Sana ay mayakap kita
        Em7        Cadd9 - D
At mahawakan ang iyong mga kamay
G     D/F#               Em7           Cadd9 - D
 Masilayan ang iyong ngiti nasa puso ko'y nagpapatili


[Verse]

e|-3-------------|-------0-------|----------------|-----------------|
B|-3--3--0-1-3-3-|-----3---3---0-|-----3--1-0---1-|------0-----3--0-|
G|-0-------------|---2-------2---|------------0---|---------2--0----|
D|-0-------------|---------------|----------------|---2-------------|
A|-2-------------|---------------|---2------------|-3---------------|
E|-3-------------|-2-------------|-0--------------|-----------------|
                                                               Sana 

e|----------------|-------0-------|-------0-------|------------|
B|-3-3--0-0-1-3-3-|-----3---3---0-|-----3---3---0-|-------0----|
G|----------------|---2-------2---|---0-------2---|-----0----2-|
D|----------------|---------------|---------------|---2------0-|
A|----------------|---------------|---------------|-3--------0-|
E|-3--------------|-2-------------|-0-------------|------------|       G (Strum once)
   ay   mayakap kita        Sabay  sabi na       minamahal          kita


************************************
| h   Hammer-on
************************************
Suggest correction
Give kudos to tab author, rate the tab!
1 2 3 4 5
comments
print report bad tab
guest
You may want to rate the tab now too:
select rating
Wanna post a correction for this tab? Suggest correction