Oops, an error
Loading. Please wait.

Perra Guardiana tab

19 views 1 this week
no commentswrite comment
1 2 3 4 5
3 more votes to show rating
add to favorites
×
Save as Personal and add changes to this tab that will be seen only by you. Learn more ›
×
You can save this tab as Personal to edit and correct it or add notes. All changes will be seen only by you. Learn more »
launch autoscroll
font size
0
reset
how to read this tab
guitar tuner
edit
Autoscroll
slow
fast
+/-
esc
set tempo
stop
La versión anterior de esta cancion esta muy bien
pero  no está del todo completa.
Esta versión se escucha muy bien a mi gusto,
suena casi igual que la original,
pónganle galleta y verán que sí les sale chido.


??De repente según las circunstancias
puede ser el piropo mas cachondo
que le puedes decir a tu mujer,
el  decirle  ?Perra???

                      Carlos Arellano.


intro:


1 |----------0-----0--------0-----0--------0-----0-------0-----0---| X2
2 |--------5---5----------5---5----------4---4---------4---4-------|
3 |------0------0-------0-------0------0-------0-----0-------0-----|
4 |---6---------------6--------------5-------------5---------------|
5 |----------------------------------------------------------------|
6 |----------------------------------------------------------------|


1 ---------0-----0--------0-----0-
2 -------3---3----------1---1-----
3 -----0-------0------0-------0---
4 ---4--------------2-------------
5 --------------------------------
6 --------------------------------


                                   X2
1 |-----------------------0-------|
2 |-------3-----3-------1---1-----|
3 |-----0---0---------0------0----|
4 |---0-------0-----0-------------|
5 |-------------------------------|
6 |-3-------------3---------------|
  G5           Gsus4


 G5               Gsus4
   Como si fuera tu deber,
 G5               Gsus4
   como si te pagaran,
 Am7                      D7              Fig: 1
   como si no bastara con aguantarme.


   Fig: 1

1 ----------------------
2 ------4------3-----1--
3 ----0------0-----0----   (esto se hace rapido y al terminar
4 --5------4-----2------       entramos directo A G5)
5 ----------------------
6 ----------------------


 G5                   Gsus4
   Dejas de amarme, me das la paz,
 G5                Gsus4
   subsidias mi voluntad,
Am7                                      D7        Fig: 1
   cuando en la espalda la edad se me recarga.


 G5                          Gsus4
   ¿Que antiguo karma estarás pagando?
 G5              Gsus4
   ¿que bisabuela oscura
Am7                         D7
   te pasó la factura y con recargos?


                                     Fig: 2

                       1 --------6------6-------5-----5---
                       2 ------4----4---------4---4-------
                       3 ----0--------0-----0-------0-----
                       4 --5--------------5---------------
                       5 ---------------------------------
Fig: 2___________      6 ---------------------------------
  Te quiero tanto
G5                 Am7
  que no le temo a nada
 Bm            Am7      D7(solo el acorde)
  si estás conmigo        perra guardiana.


intermedio:

G5 Am7  Bm  Am7   MI perra guardiana

G5 Am7  Bm  Am7


 G5                     Gsus4
  Contra las malas rachas tu
 G5                Gsus4
  ángel de la guarda,
Am7                                      D7        Fig: 1
  para estas fachas de gandul tu alcahueta mirada.

 G5                          Gsus4
  No tengo nada que te puedo dar
 G5      Gsus4
  solo problemas,
Am7                          D7        Fig: 1
  y este corazón que apenas sabe amar.

 G5                      Gsus4
  Entre tus brazos estoy salvado
 G5           Gsus4
  a salvo mi pellejo,
Am7                           D7
  contigo soy un perro viejo enamorado.


Fig: 2___________
  Te quiero tanto
G5                 Am7
  que no le temo a nada
 Bm            Am7      D7(solo el acorde)
  si estás conmigo        perra guardiana.


G5 Am7  Bm  Am7   MI perra guardiana

G5 Am7  Bm  Am7   MI perra guardiana

G5 Gsus4


Acordes:


1 ---x----x-----0----2----0----
2 ---3----1-----1----1----3----
3 ---0----0-----0----2----4----
4 ---0----0-----2----0----4----
5 ---x----x-----0----x----2----
6 ---3----3-----x----x----x----
    G5  Gsus4  Am7   D7   Bm


Esta fácil solo es cuestión de que la escuchen.
La fig:2 es lo mas difícil de la canción
pero practiquen y verán que si se puede.
Pongas buena calificación.
Esto fue todo, comentarios, dudas, o lo que sea a mi correo.
Suggest correction
Creating personal tab
Creating personal tab
You can edit any tab online and save it as your Personal.

You can edit, replace or remove any tab part or add personal notes – all changes will be seen only by you.

Personal tabs can be accessed anytime from any device, even offline.
Learn more »
Give kudos to tab author, rate the tab!
1 2 3 4 5
comments
print report bad tab
guest
Wanna post a correction for this tab? Suggest correction