Oops, an error
Loading. Please wait.

Por Una Cabeza Bass Tab

version 1
version 1

Whole song

Interactive

4,025 views 9 this week
no commentswrite comment
1 2 3 4 5
2 more votes to show rating
add to favorites
launch autoscroll
font size
0
reset
guitar tuner
Autoscroll
slow
fast
+/-
esc
set tempo
stop
Help us to improve Ultimate-Guitar.com Take our survey!
×
Author
Difficulty
novice
G|--3-3-5-7-7------0-0-2-3-3--------------------------------|
D|------------7-7~-----------3-3~---0-0-2-302-0-0-2-3-3-2-2-|
A|----------------------------------------------------------|
E|----------------------------------------------------------|

G|--3-3-5-7-7------0-0-2-3-3-----------------------------------|
D|------------7-7~-----------3-3~---0-0-2-3-0-2/-0-0-2-3-3-2-2-|
A|-------------------------------------------------------------|
E|-------------------------------------------------------------|

This is my first tab, if you found a mistake, please mail me ;)

Good Luck!
Suggest correction
Give kudos to tab author, rate the tab!
1 2 3 4 5
comments
print report bad tab
guest
You may want to rate the tab now too:
select rating
Wanna post a correction for this tab? Suggest correction