Oops, an error
Loading. Please wait.

Por Una Cabeza Tab

version 1
version 1

Whole song

Interactive

82,897 views 264 this week
1 commentread comment
1 2 3 4 5
accurate
x 15
add to favorites
launch autoscroll
font size
0
reset
how to read this tab
guitar tuner
Autoscroll
slow
fast
+/-
esc
set tempo
stop
Help us to improve Ultimate-Guitar.com Take our survey!
×
[Verse]

e|-----------------------------------------|------------------------------------|
B|-----------------------------------------|--12-13---10-12-----10--------------|
G|-------------9-----------------11-14-12--|-----------------12-----11h12p11----|
D|--9-10-11-12---12-----11-12-14-----------|--------------------------------12--|
A|-----------------------------------------|------------------------------------|
E|-----------------------------------------|------------------------------------|


e|----|------------------------------------|------------------------------------|
B|----|--/13-12--15-13------------12-------|--------------12--------------------|
G|----|----------------14---14-13----14-11-|--11-12-13-14----14--11-------11----|
D|-10-|------------------------------------|------------------------12-13----14-|
A|----|------------------------------------|------------------------------------|
E|----|------------------------------------|------------------------------------|


e|-------|----------------------------------------------------------------------|
B|-------|----------------------------------------------------------------------|
G|-------|--------------9---------------11-14-12---12-16-14-12-14v-12-14-16-14--|
D|--10-9-|---9-10-11-12---12---11-12-14-----------------------------------------|
A|-------|----------------------------------------------------------------------|
E|-------|----------------------------------------------------------------------|


e|------12v-|------------------------------------------|------------------------|
B|----------|---10-------------------------------------|------------------------|
G|--12------|------12-9---------------8-12-10-8--12----|--12-14-16-12-14--------|
D|----------|-----------10-9---7-9-10---------------12-|------------------------|
A|----------|------------------------------------------|------------------------|
E|----------|------------------------------------------|------------------------|


e|-----------------|------------||---------------------------------------|
B|-----------------|------------||---------------------------------------|
G|--11-12-14-11-12-|------------||o-----5-7-7----------------------------|
D|-----------------|------5-----||o-8-8-------7--5-5-7-8-8-----------5-5-|
A|-----------------|----5---5---||-------------------------8---6-6-8-----|
E|-----------------|----------3-||---------------------------------------|
                                                         pre --->    Chorus
 (i play this up the octave the 2nd time round)

e|------------------------------||---------------------------|-------------------|
B|------------------------------||---------------------------|-------------------|
G|-----------------------------o||---------------------------|-------------------|
D|---5-7-8-5-7---5-7-8-5--8-7--o||--5-7-8-5-7----4-5-7-4-5---|-------------------|
A|------------------------------||---------------------------|-------------------|
E|------------------------------||---------------------------|-------------------|

  1st time                                                      2nd time


From here, back to the verse
for the slightly varied verse line



************************************

| h  Hammer-on
| p  Pull-off
| /  Slide up
| v  Vibrato

************************************
Suggest correction
What's this?
You can suggest a correction to this tab. Community and Mods will review your correction and vote to approve or reject it.
comments
print report bad tab
1 comment total.
0 reply
unlawfulsoup 20 wrote on July 10 2016, 12:23 am

Great job, plays really well.

guest
You may want to rate the tab now too:
select rating
Please do not post tabs as comments. Select "correction" instead!