Oops, an error
Loading. Please wait.

Te Amo tab

43 views 1 this week
no commentswrite comment
1 2 3 4 5
3 more votes to show rating
add to favorites
×
Save as Personal and add changes to this tab that will be seen only by you. Learn more ›
×
You can save this tab as Personal to edit and correct it or add notes. All changes will be seen only by you. Learn more »
launch autoscroll
font size
0
reset
how to read this tab
guitar tuner
edit
Autoscroll
slow
fast
+/-
esc
set tempo
stop
INTRO:
     e |--3---3-2------3---3-2------3---3-2------------------|
     B |----3-----3------3-----3------3-----3----3---3-2-----|
     G |-------------------------------------------2-----2---|
     D |--0--------------------------------------------------|
     A |---------------2------------3------------0-----------|
     E |-----------------------------------------------------|

     e |--3---3-2------3---3-2------3---3-2------------------|
     B |----3-----3------3-----3------3-----3----3---3-2-----|
     G |-------------------------------------------2-----2---|
     D |--0--------------------------------------------------|
     A |---------------2------------3------------0-----------|
     E |-----------------------------------------------------|


ESTROFA 1:
           Dadd2                      Dadd2/C#
     e |--------0------------------------0------------|
     B |------3----------------------------3----------|
     G |----2--------------------------2--------------|
     D |--0-------------------------------------------|
     A |-----------------------------4----------------|
     E |----------------------------------------------|
         No puedo esconderme de tu mirada

         G               G/B#               Aadd2
     e |-3----------------3------------------0---0---|
     B |-3----------------3--------------------0-----|
     G |-0----------------0----------------2---------|
     D |-0----------------0--------------------------|
     A |-2----------------2--------------0-----------|
     E |-3-------------------------------------------|
           No puedo ignorar tu voz de amor

            Dadd2                     Dadd2/C#
     e |--------0------------------------0------------|
     B |------3----------------------------3----------|
     G |----2--------------------------2--------------|
     D |--0-------------------------------------------|
     A |-----------------------------4----------------|
     E |----------------------------------------------|
          Toda nuestra vida está en tus manos

            G         G/B#           Aadd2
          Ayúdame a vivir en santidad.
                    G     Aadd2
          Cristo me amas
                    G      Asus4-A
          Cristo me amas.


CORO:
                    G
        //Cristo te amo Dios
             Em7            D
          Te amo Dios, Te amo//


PUENTE:
       e |--3---3-2------3---3-2------3---3-2------------------|
       B |----3-----3------3-----3------3-----3----3---3-2-----|
       G |-------------------------------------------2-----0---|
       D |--0--------------------------------------------------|
       A |---------------2------------3------------0-----------|
       E |-----------------------------------------------------|


ESTROFA 1:
           Dadd2                      Dadd2/C#
         No puedo esconderme de tu mirada
         G               G/B#               Aadd2
           No puedo ignorar tu voz de amor
            Dadd2                     Dadd2/C#
          Toda nuestra vida está en tus manos
            G         G/B#           Aadd2
          Ayúdame a vivir en santidad.
                    G     Aadd2
          Cristo me amas
                    G      Asus4-A
          Cristo me amas.


CORO:
                    G
        //Cristo te amo Dios
             Em7            D
          Te amo Dios, Te amo//


INTERLUDIO:
                 G  Em7  D
          Yo te amo
                                  G  Em7  D-Em7-F#m-G-Aadd2-G
          Yo te amo Señor, yo te amo.
       Dsus4-D  Dsus4-D   G  Em7  Dsus4-D  Dsus4-D
          Te amo, te amo, yooooo.


CORO:
                 G
        //Cristo te amo Dios
             Em7            D
          Te amo Dios, Te amo//


Un saludo a la Iglesia Voz en El Desierto de calle Brasil,
Puente Alto, Santiago de Chile y a mi amada Cindy.

            
            
Suggest correction
Creating personal tab
Creating personal tab
You can edit any tab online and save it as your Personal.

You can edit, replace or remove any tab part or add personal notes – all changes will be seen only by you.

Personal tabs can be accessed anytime from any device, even offline.
Learn more »
Give kudos to tab author, rate the tab!
1 2 3 4 5
comments
print report bad tab
guest
Wanna post a correction for this tab? Suggest correction