Oops, an error
Loading. Please wait.

Di Que Si tab

21 views 1 this week
no commentswrite comment
1 2 3 4 5
3 more votes to show rating
add to favorites
×
Save as Personal and add changes to this tab that will be seen only by you. Learn more ›
×
You can save this tab as Personal to edit and correct it or add notes. All changes will be seen only by you. Learn more »
launch autoscroll
font size
0
reset
how to read this tab
guitar tuner
edit
Autoscroll
slow
fast
+/-
esc
set tempo
stop
Intro:
   G       Em/D         Cadd9
e------------------------------|------------------------------|
B-----3------3-------0--------3|----3------3-------0-------3--|
g-0---0--0---0---0-2---2-0/2-2-|0---0--0---0---0-2---2-0/2---2|
D---0------2-----0-------0/0---|--0------2-----0-------0/0----|
A------------------------------|------------------------------|
E-3------0---------------------|3------0----------------------|

-Rasgueo del intro
 G    Em/D      Cadd9      Dsus4
Esta vez te metiste en mi piel
 G        Em/D      Cadd9        Dsus4
y ahora se que no hay nada que hacer
 G       Em/D    Cadd9   Dsus4
me has robado la libertad
 G     Em/D  Cadd9   Dsus4        (Entra el intro)
enamorado de ti hasta la eternidad
    G       Em/D         Cadd9
e------------------------------|------------------------------|
B-----3------3-------0--------3|----3------3-------0-------3--|
g-0---0--0---0---0-2---2-0/2-2-|0---0--0---0---0-2---2-0/2---2|
D---0------2-----0-------0/0---|--0------2-----0-------0/0----|
A------------------------------|------------------------------|
E-3------0---------------------|3------0----------------------|

G      Em/D       Cadd9    Dsus4
 Aveces no conozco el futuro
G       Em/D      Cadd9   Dsus4
 aveces me parece tan irreal
G         Em/D            Cadd9    Dsus4
 contigo es cuando encuentro sentido
G           Em/D     Cadd9    Dsus4
 a lo que me depara el destino
      Em Em/D         C
y lo se me tienes a tus pies
     Em Em/D           C       Dsus4
sin querer me ha pasado otra vez

-Coro
       G              Em/D
Enamorado con los ojos vendados
     Cadd9              Dsus4
ilucionado por vivir en tus manos
          G                   Em/D
hazme un regalo que salga de tus labios
(Rasgueado)Cadd9       Dsus4
y de tus labios palabras de amor

   G       Em/D         Cadd9
e------------------------------|------------------------------|
B-----3------3-------0--------3|----3------3-------0-------3--|
g-0---0--0---0---0-2---2-0/2-2-|0---0--0---0---0-2---2-0/2---2|
D---0------2-----0-------0/0---|--0------2-----0-------0/0----|
A------------------------------|------------------------------|
E-3------0---------------------|3------0----------------------|

G         Em/D      Cadd9     Dsus4
 Aveces pienso en ti derrepente
G           Em/D        Cadd9         Dsus4
 aveces con un trago ya estoy de tu lado
G          Em/D      Cadd9  Dsus4
 aveces no me basta la noche
      G          Em/D          Cadd9       Dsus4
 para entrar por tu ventana y llevarte lejos
      Em Em/D          C
y lo se me tienes a tus pies
      Em Em/D             C     Dsus4
sin querer me ha pasado otra ves

-Coro
       G              Em/D
Enamorado con los ojos vendados
     Cadd9              Dsus4
ilucionado por vivir en tus manos
          G              Em/D
hazme un regalo que salga de tus labios
(Rasgueado)Cadd9       Dsus4
y de tus labios palabras de amor
(rasgueado)Cadd9      Dsus4
y de tus labios...Di que si porfavor.

Saludos a la raza de chihuahua mis compas del everest.

            
            
Suggest correction
Creating personal tab
Creating personal tab
You can edit any tab online and save it as your Personal.

You can edit, replace or remove any tab part or add personal notes – all changes will be seen only by you.

Personal tabs can be accessed anytime from any device, even offline.
Learn more »
Give kudos to tab author, rate the tab!
1 2 3 4 5
comments
print report bad tab
guest
Wanna post a correction for this tab? Suggest correction