Oops, an error
Loading. Please wait.

A Los Tilingos tab

113 views 3 this week
no commentswrite comment
1 2 3 4 5
3 more votes to show rating
add to favorites
×
Save as Personal and add changes to this tab that will be seen only by you. Learn more ›
×
You can save this tab as Personal to edit and correct it or add notes. All changes will be seen only by you. Learn more »
launch autoscroll
font size
0
reset
how to read this tab
guitar tuner
edit
Autoscroll
slow
fast
+/-
esc
set tempo
stop
A LOS TILINGOS

e|-------|-----------0-|--9-4h|7h5-7h5----|-5-7?-5h|0-------|--5-4h2-
B|-----2h|3h2---2h3h4--|--6---|5------5--7|----6---|--------|--5-----
G|-2h4---|----4--------|--7---|6---------6|----5---|--------|--4-----
D|-------|-------------|--6---|----------7|----7---|--------|----0---
A|-------|-------------|------|0-----4----|5---5---|0-7/2h3h|4-------
E|-------|-------------|-0----|-----------|--------|--------|--------

e|-1h4h|2-----------|------------|------------|---1-0---0---|-----0----|
B|-----|----2-------|---1-0--0---|--3-2-1h2---|---0---4---3-|-2--------|
G|-----|--2---------|---2---3----|--5-4-3h4---|---1---------|--------1-|
D|-----|------3-----|---1--------|--4-3-2h3---|-------------|---2------|
A|-----|--------4-0-|-2----------|------------|-----------1-|-0--------|
E|-0---|2-----------|-------2--3h|4---4-2-3-0-|-1-----0-----|-------0--|

e|---------|----------|-----------|--------------|---0?--9|4h7h5-7h5----|
B|-----3---|-----2----|----0----2h|3h2-----------|--0---6-|--5------5--7|
G|-----2---|-----1--1-|----2-2h4--|---4h2h1------|-1---7--|--6---------6|
D|---3-----|---2------|---3-------|--------4h2h1h|2---6---|------------7|
A|-0-------|-0--------|-0---------|--------------|--------|--0-----4----|
E|-------0-|-------0--|-----------|--------------|--------|-------------|

e|-5-7?-5h|--------|--5-4h2-1h4h|
B|----6---|--------|--5---------|
G|----5---|--------|--4---------|
D|----7---|--------|----0-------|
A|5---5---|7-7/2h3h|4-----------|
E|--------|--------|--------0---|

e|2-----------|------------|------------|---1-0---0---|-----0----|
B|----2-------|---1-0--0---|--3-2-1h2---|---0---4---3-|-2--------|
G|--2---------|---2---3----|--5-4-3h4---|---1---------|--------1-|
D|------3-----|---1--------|--4-3-2h3---|-------------|---2------|
A|--------4-0-|-2----------|------------|-----------1-|-0--------|
E|2-----------|-------2--3h|4---4-2-3-0-|-1-----0-----|-------0--|

e|---------|----------|-------|
B|-----3---|-----2----|----0?-|
G|-----2---|-----1--1-|----2--|
D|---3-----|---2------|--3----|
A|-0-------|-0--------|0------|
E|-------0-|-------0--|-------|

e|------|-----------|-1-5h3--0h|---|-----5h8h12-10h|-7-4h|-1-|-0-------
B|------|----0h1--3h|------3-0h|---|----6-------10h|-7-5h|-1-|-----0h1-
G|------|---2---2-0h|----------|-3-|---5--------10h|-7-4h|-1-|---------
D|------|--2--------|-----3----|-5-|-0----------9-h|-6-3h|---|---2-----
A|-0----|---------1h|--------3h|-4-|---------------|-----|---|-0-------
E|--3h2h|1----------|----------|---|---------------|-----|-0-|---------

e|-----|-----------|-----|-4-|-----5h7h8-7h|---|-----5-----|-----7----|
B|-----|----0h1--3h|-0-1h|-3-|----5------7h|-5-|-----5---0h|-----7--2h|
G|-----|---2---2-2h|-1-0h|-4-|---5-------7h|-7-|-----4-----|-----6----|
D|-----|--2------1h|-0-2h|-3-|-4---------6h|-6-|---4-------|---6------|
A|-----|---------2h|---0h|---|-------------|---|-0---------|-0--------|
E|-3h0h|1----------|-0---|---|-------------|-6-|-------0---|-------0--|

e|-----5-----|-----7----|
B|-----5---0h|-----7--2h|
G|-----4-----|-----6----|
D|---4-------|---6------|
A|-0---------|-0--------|
E|-------0---|-------0--|

e|--12-12h12-12---12-|---10-10h10-10---10-|---9-9h9-9---9-|---7-7h7-
B|-----12h12-12---12-|------10h10-10---10-|-----9h9-9---9-|-----7h7-
G|-----11h11-11---11-|------9-h9--9----9--|-----7h7-7---7-|-----6h6-
D|-----11------------|------9-------------|-----7---------|-----6---
A|-0-----------------|-0------------------|-0-------------|-0-------
E|--------------0----|---------------0----|-----------0---|---------

e|-7---7-|---5-5h5-5---5-|---4-4h4----|0---------|---------|-----------|
B|-7---7-|-----7h7-7---7-|-----3h3---3|----2-----|-----3---|-----2-----|
G|-6---6-|-----4h4-4---4-|-----2h2----|--------1-|-----2---|-----1-----|
D|-------|-----4---------|-----2------|--2-------|---3-----|---2-----1h|
A|-------|-0-------------|-0----------|0---------|-0-------|-0---------|
E|---0---|-----------0---|---------0--|------0---|-------0-|-------0---|

e|---------|---12-12h12-12---12-|---10-10h10-10----10-|---8-8h8-8---8-|
B|-----0---|------12h12-12---12-|------10h10-10----10-|-----8h8-8---8-|
G|-----2---|------10h10-10---10-|------9-h9--9-----9--|-----7h7-7---7-|
D|---3-----|------10h10---------|------9-h9-----------|-----7h7-------|
A|-0-------|-0------------------|-0-------------------|-0-------------|
E|-------0-|---------------0----|---------------0-----|-----------0---|

e|---7-7h7-7---7-|---5-5h5-5---5-|---3-3h3----|0--------|---------|
B|-----6h6-6---6-|-----6h6-6---6-|-----3h3---3|----1---0|----3----|
G|-----5h5-5---5-|-----4h4-4---4-|-----2h2----|----4----|----2----|
D|-----5h5-------|-----3h3-------|-----2------|--2------|--3------|
A|-0-------------|-0-------------|-0----------|0--------|0--------|
E|-----------0---|-----------0---|---------0--|------0--|-------0-|

e|----------|----0----|
B|-----1----|----0-0h2|
G|-----4---1|---2-2---|
D|---2------|--3------|
A|-0--------|0--------|
E|-------0--|---------|

e|-------|-----------0-|--9-4h|7h5-7h5----|-5-7?-5h|0-------|--5-4h2-
B|-----2h|3h2---2h3h4--|--6---|5------5--7|----6---|--------|--5-----
G|-2h4---|----4--------|--7---|6---------6|----5---|--------|--4-----
D|-------|-------------|--6---|----------7|----7---|--------|----0---
A|-------|-------------|------|0-----4----|5---5---|0-7/2h3h|4-------
E|-------|-------------|-0----|-----------|--------|--------|--------

e|-1h4h|2-----------|------------|------------|---1-0---0---|-----0----|
B|-----|----2-------|---1-0--0---|--3-2-1h2---|---0---4---3-|-2--------|
G|-----|--2---------|---2---3----|--5-4-3h4---|---1---------|--------1-|
D|-----|------3-----|---1--------|--4-3-2h3---|-------------|---2------|
A|-----|--------4-0-|-2----------|------------|-----------1-|-0--------|
E|-0---|2-----------|-------2--3h|4---4-2-3-0-|-1-----0-----|-------0--|

e|---------|----------|-----------|--------------|---0?--9|4h7h5-7h5----|
B|-----3---|-----2----|----0----2h|3h2-----------|--0---6-|--5------5--7|
G|-----2---|-----1--1-|----2-2h4--|---4h2h1------|-1---7--|--6---------6|
D|---3-----|---2------|---3-------|--------4h2h1h|2---6---|------------7|
A|-0-------|-0--------|-0---------|--------------|--------|--0-----4----|
E|-------0-|-------0--|-----------|--------------|--------|-------------|

e|-5-7?-5h|--------|--5-4h2-1h4h|
B|----6---|--------|--5---------|
G|----5---|--------|--4---------|
D|----7---|--------|----0-------|
A|5---5---|7-7/2h3h|4-----------|
E|--------|--------|--------0---|

e|2-----------|------------|------------|---1-0---0---|-----0----|
B|----2-------|---1-0--0---|--3-2-1h2---|---0---4---3-|-2--------|
G|--2---------|---2---3----|--5-4-3h4---|---1---------|--------1-|
D|------3-----|---1--------|--4-3-2h3---|-------------|---2------|
A|--------4-0-|-2----------|------------|-----------1-|-0--------|
E|2-----------|-------2--3h|4---4-2-3-0-|-1-----0-----|-------0--|

e|---------|----------|-------|
B|-----3---|-----2----|----0?-|
G|-----2---|-----1--1-|----2--|
D|---3-----|---2------|--3----|
A|-0-------|-0--------|0------|
E|-------0-|-------0--|-------|

e|------|-----------|-1-5h3--0h|---|-----5h8h12-10h|-7-4h|-1-|-0-------
B|------|----0h1--3h|------3-0h|---|----6-------10h|-7-5h|-1-|-----0h1-
G|------|---2---2-0h|----------|-3-|---5--------10h|-7-4h|-1-|---------
D|------|--2--------|-----3----|-5-|-0----------9-h|-6-3h|---|---2-----
A|-0----|---------1h|--------3h|-4-|---------------|-----|---|-0-------
E|--3h2h|1----------|----------|---|---------------|-----|-0-|---------

e|-----|-----------|-----|-4-|-----5h7h8-7|
B|-----|----0h1--3h|-0-1h|-3-|----5------7|
G|-----|---2---2-2h|-1-0h|-4-|---5-------7|
D|-----|--2------1h|-0-2h|-3-|-4---------6|
A|-----|---------2h|---0h|---|------------|
E|-3h0h|1----------|-0---|---|------------|

e|12-----------|-----5-|
B|--12---------|----5--|
G|----10-------|---4---|
D|------9------|--4----|
A|-------------|0------|
E|--------0h2h4|-------|

            
            
Suggest correction
Creating personal tab
Creating personal tab
You can edit any tab online and save it as your Personal.

You can edit, replace or remove any tab part or add personal notes – all changes will be seen only by you.

Personal tabs can be accessed anytime from any device, even offline.
Learn more »
Give kudos to tab author, rate the tab!
1 2 3 4 5
comments
print report bad tab
guest
Wanna post a correction for this tab? Suggest correction