Oops, an error
Loading. Please wait.

Hasta Siempre Comandante chords

1,660 views 36 this week
no commentswrite comment
1 2 3 4 5
1 last vote to show rating
add to favorites
×
Save as Personal and add changes to this tab that will be seen only by you. Learn more ›
×
You can save this tab as Personal to edit and correct it or add notes. All changes will be seen only by you. Learn more »
launch autoscroll
font size
0
reset
transpose
0
reset
simplify chords
display chords
guitar tuner
edit
Autoscroll
slow
fast
+/-
esc
set tempo
stop
Author
Difficulty
Strumming
There is no strumming pattern for this song yet. and get +5 IQ
Intro:
                                  Em

E--------------------------------|3-2---2-3-2---2-3-2---2-3-2---3-|
B--------------------------------|----5-------5-------5-------5---|
G--------------------------------|--------------------------------|
D--------------------------------|--------------------------------|
A--------------------2---4---6---|--------------------------------|
E--------------------------------|--------------------------------|
 D                                C                               
E-2-0---0-2-0---0-2-0---0-2-0---2|0---------------0-------2---0--|
B----3-------3-------3-------3---|-----3---1---3-------4----------|
G--------------------------------|--------------------------------|
D--------------------------------|--------------------------------|
A--------------------------------|--------------------------------|
E--------------------------------|--------------------------------|
 B7
E--------------------------------|
B4-----------0-------------------|
G--------------------------------|
D--------------------------------|
A--------------------2---4---6---|
E--------------------------------|

Verse:

Em           Am        B7
Aprendimos a quererte
Em           Am        B7
Desde la historica altura
Em           Am        B7
Donde el sol de tu bravura
Em           Am        B7
Le puso un cerco a la muerte

Chorus:

Em           Am        B7
Aquí se queda la clara
Em           Am        B7
La entrañable transparencia
Em           Am        B7
De tu querida presencia
Em           Am        B7
Comandante Che Guevara

Em  |  D   Dsus4 |   C  |   B7  |

Verse:

Em           Am        B7
Vienes quemando la brisa
Em           Am        B7
Con soles de primavera
Em           Am        B7
Para plantar la bandera
Em           Am        B7
Con la luz de tu sonrisa

Chorus:

Em           Am        B7
Aquí se queda la clara
Em           Am        B7
La entrañable transparencia
Em           Am        B7
De tu querida presencia
Em           Am        B7
Comandante Che Guevara

Em  |  D   Dsus4 |   C  |   B7  |

Verse:

Em           Am        B7
Como revolucionario
Em           Am        B7
Que conducía nueva empresa
Em           Am        B7
Donde espera la firmesa
Em           Am        B7
De tu brazo libertario

Chorus:

Em           Am        B7
Aquí se queda la clara
Em           Am        B7
La entrañable transparencia
Em           Am        B7
De tu querida presencia
Em           Am        B7
Comandante Che Guevara

Em  |  D   Dsus4 |   C  |   B7  |

Verse:

Em           Am        B7
(hablado)
Seguiremos adelante
Em           Am        B7
Como junto a tí seguimos
Em           Am        B7
Y con Fidel te decimos
Em           Am        B7
Hasta siempre Comandante

Chorus:

Em           Am        B7
Aquí se queda la clara
Em           Am        B7
La entrañable transparencia
Em           Am        B7
De tu querida presencia
Em           Am        B7
Comandante Che Guevara


            
            
Suggest correction
Creating personal tab
Creating personal tab
You can edit any tab online and save it as your Personal.

You can edit, replace or remove any tab part or add personal notes – all changes will be seen only by you.

Personal tabs can be accessed anytime from any device, even offline.
Learn more »
Give kudos to tab author, rate the tab!
1 2 3 4 5
comments
print report bad tab
guest
You may want to rate the tab now too:
select rating
Wanna post a correction for this tab? Suggest correction