Oops, an error
Loading. Please wait.

Por Ti chords

289 views 1 this week
no commentswrite comment
1 2 3 4 5
3 more votes to show rating
add to favorites
×
Save as Personal and add changes to this tab that will be seen only by you. Learn more ›
×
You can save this tab as Personal to edit and correct it or add notes. All changes will be seen only by you. Learn more »
launch autoscroll
font size
0
reset
transpose
0
reset
simplify chords
display chords
guitar tuner
edit
Autoscroll
slow
fast
+/-
esc
set tempo
stop
Strumming
There is no strumming pattern for this song yet. and get +5 IQ
Hola, esta es mi primer aportacion, una balada que me gusta y que aun
no la habian podido subir.
eperio le entiendan, les guste y les sea de ayuda.
Gracias!

Ahora, el intro va con unos pequeños arreglos despues del A
es un circulo que se repite 2 veces con unos pequeños cambios en el segundo.

Otra cosa, durante el verso el cambio de A a Asus es solo un arreglo
que va rapido y vuelves al acorde original,
no es necesario tocarlo completo, con hacerlo como en el intro basta;
al igual que en el D a Dsus.

En el Verso y Coro hay dos acordes que les meto una pequeña modificacion
cuando yo toco la cancion, abajo les dejo los dos acordes que son F#m y Am7 :

  F#m            Am7
E|--2---|     E|--3---|
B|--2---|     E|--1---|
G|--2---|     E|--0---|
D|--2---|     E|--2---|
A|--4---|     E|--0---|
E|--2---|     E|--0---|


Intro:
   C     G  Em     A-Asus  C       G  Em   A-Asus
E|0------3~-0------0-------0-------3~-0--3-0----------|
B|1----1-3~-0----0-2--3-2--1-----1-3~-0----2--3-2-----|
G|0---0--0~-0---0--2-----2-0----0--0~-0----2-----2----|
D|2--2---0~-2--2---2-------2---2---0~-2----2----------|
A|3-3----2~-2-2----0-0-----3-3-----2~-2-2--0-0--------|
E|0------3~-0------0-------0-------3~-0----0----------|

C            G      Em            A-Asus-A
Hay amores mudos,   perdieron el habla

C             G                   Am7            D-Dus-D
Hay amores crueles que    al final  te dan la espalda

C            G      Em             A-Asus-A
Hay amores tibios    que desaparecen

C              G          Am7          D-Dsus-D
y otros que parece que desde la nada crecen.


        C                     A
Y hay amor desesperado y moribundo que ha perdido el rumbo

      D                      D7
Y hay amor letal que hace pedazos y no tiene caso


   C       G             A-Asus-A
Y hay    amor que da la vida,
  C        G             A-Asus-A
Que  no entiende de   partidas

D         F#m         Bm7                A            E
Que    te mira si lo miras,     que te cuida noche y día

                        A   Asus  A
Como el que siento por ti.


 (De aquí en adelante es exactamente lo mismo, se repite todo hasta el final)


Hay amores tercos que nunca renuncian
amores sorpresa que al llegar jamás se anuncian
Hay amor mentira que te rompe el alma
Hay amor posible que no deja estar en calma

Y hay amor desesperado y moribundo que ha perdido el rumbo
y hay amor letal que hace pedazos y no tiene caso
y hay amor que da la vida, que no entiende de partidas
que te mira si lo miras, que te cuida noche y día
como el que siento por ti.

Y hay amor que da la vida, que no entiende de partidas
que te mira si lo miras, que te cuida noche y día
como el que siento por ti

Final
   D                                             G         D
E|-------------------------------------------------------------2~--2~-----|
B|----3--------3--------3--------3--------3-------3--------2---2~--3~-----|
G|--2---2----2---2----2---2----2---2----2---2---2---2----0---0-0~--2~-----|
D|0-------0------------------------------------0-------0~--0~----|
A|------------------4--------4--------3-------3----------2---------0~-----|
E|-------------------------------------------------------3---------0~-----|
                         ?Como el que siento por ti.

            
            
Suggest correction
Creating personal tab
Creating personal tab
You can edit any tab online and save it as your Personal.

You can edit, replace or remove any tab part or add personal notes – all changes will be seen only by you.

Personal tabs can be accessed anytime from any device, even offline.
Learn more »
Give kudos to tab author, rate the tab!
1 2 3 4 5
comments
print report bad tab
guest
Wanna post a correction for this tab? Suggest correction