Oops, an error
Loading. Please wait.

Celeste tab

816 views 6 this week
no commentswrite comment
1 2 3 4 5
1 last vote to show rating
add to favorites
×
Save as Personal and add changes to this tab that will be seen only by you. Learn more ›
×
You can save this tab as Personal to edit and correct it or add notes. All changes will be seen only by you. Learn more »
launch autoscroll
font size
0
reset
how to read this tab
guitar tuner
edit
Autoscroll
slow
fast
+/-
esc
set tempo
stop
esta es la versión de Carlos Sadness con Nicco
todos los acordes se hacen con se hacen con cejilla

al empezar hay un pequeño intro que va así:

e|--------------|--------------|--------------||
B|-----------8--|-----------8--|------8----8--||
G|--------------|--------------|--------------||
D|--10-10-10----|--10-10-10----|---10---10----||x 2
A|--------------|--------------|--------------||
E|--------------|--------------|--------------||

e|--------------|--------------|--------------||
B|-----------8--|-----------8--|------8----8--||
G|--------------|--------------|--------------||
D|---9--9--9----|---9--9--9----|----9----9----||x 2
A|--------------|--------------|--------------||
E|--------------|--------------|--------------||

e|--------------|--------------|--------------||
B|-----------8--|-----------8--|------8----8--||
G|--------------|--------------|--------------||
D|--10-10-10----|--10-10-10----|---10---10----||x 2
A|--------------|--------------|--------------||
E|--------------|--------------|--------------||

e|--------------|--------------|--------------||
B|-----------8--|-----------8--|------8----8--||
G|--------------|--------------|--------------||
D|---9--9--9----|---9--9--9----|----9----9----||
A|--------------|--------------|--------------||
E|--------------|--------------|--------------||

e|--------------|--------------|--------------||
B|-----------10-|------------8-|------8----8--||
G|--------------|--------------|--------------||
D|---9--9--9----|---9---9--9---|----9----9----||
A|--------------|--------------|--------------||
E|--------------|--------------|--------------||

después de esto se empiesa a cantar:
e|--------------|--------------|--------------||
B|-----------8--|-----------8--|------8----8--||
G|--------------|--------------|--------------||
D|--10-10-10----|--10-10-10----|---10---10----||x 2
A|--------------|--------------|--------------||
E|--------------|--------------|--------------||
                                   ya       me       caí     por    el   tunel,

e|--------------|--------------|--------------||
B|-----------8--|-----------8--|------8----8--||
G|--------------|--------------|--------------||
D|---9--9--9----|---9--9--9----|----9----9----||x 2
A|--------------|--------------|--------------||
E|--------------|--------------|--------------||
   seguía mi olfato el camino de ese perfume hasta

e|--------------|--------------|--------------||
B|-----------8--|-----------8--|------8----8--||
G|--------------|--------------|--------------||
D|--10-10-10----|--10-10-10----|---10---10----||x 2
A|--------------|--------------|--------------||
E|--------------|--------------|--------------||
llegar al final infinito del bosque donde

e|--------------|--------------|--------------|
B|-----------8--|-----------8--|------8----8--|
G|--------------|--------------|--------------|
D|---9--9--9----|---9--9--9----|----9----9----|
A|--------------|--------------|--------------|
E|--------------|--------------|--------------|
solo hay silencio,

e|--------------|--------------|--------------||
B|-----------10-|------------8-|------8----8--||
G|--------------|--------------|--------------||
D|---9--9--9----|---9---9--9---|----9----9----||
A|--------------|--------------|--------------||
E|--------------|--------------|--------------||
donde nadie nos oye.

 C
Te veo aparecer cuando se hace de noche,
 G
las flores y los arboles se tiñen
        F
de bronce, estamos rodeados de estrellas de colores y empiezo
ha acercarme para verte
 C           G     F                       C       G    F
Bien, ¿Quién eres tu? nunca había visto algo, tan especial
                       C     G       F
tan infinitamente humano, es de cristal, y se rompe con las
   C      G     F
manos, a lo mejor no podemos ni tocarnos.


Aquí hay un pequeño puente:
  C
e|--------------|--------------|--------------||
B|-----------8--|-----------8--|------8----8--||
G|--------------|--------------|--------------||
D|--10-10-10----|--10-10-10----|---10---10----||
A|--------------|--------------|--------------||
E|--------------|--------------|--------------||
  F
e|--------------|--------------|--------------||
B|-----------6--|-----------6--|------6----6--||
G|--------------|--------------|--------------||
D|---7--7--7----|---7--7--7----|----7----7----||
A|--------------|--------------|--------------||
E|--------------|--------------|--------------||

después de esto se repite lo mismo pero ahora cantando lo siguiente:
 C                                 F
Hey, y no se que pasó luego, solo que desperté a la otra
                   C
orilla del lago y con los ojos cerrados y con los labios
salados

en esta parte cambia a este arreglo:
e|--------------|--------------|--------------||
B|--15----------|--15----------|---15----15---||
G|--------------|--------------|--------------||
D|----12-12-12--|----12-12-12--|-----12---12--||
A|--------------|--------------|--------------||
E|--------------|--------------|--------------||

e|--------------|--------------|--------------||
B|--14----------|--14----------|---14----1---||
G|--------------|--------------|--------------||
D|----12-12-12--|----12-12-12--|-----12---12--||
A|--------------|--------------|--------------||
E|--------------|--------------|--------------||


no supe si estabas cerca, o lo había soñado


 C
He vuelto tantas veces a ese sitio del bosque,
 G
buscándote de nuevo, bailando entre robles,
 F
sospecho que animales nocturnos te esconden,
no quieren que me acerque para que vuelva
a decirte

 C     G     F                       C       G    F
que..¿Quién eres tu? nunca había visto algo, tan especial
                       C     G       F
tan infinitamente humano, es de cristal, y se rompe con las
   C      G     F                     C    Am C Am
manos, a lo mejor no podemos ni tocarnos


 C
He vuelto tantas veces a ese sitio del bosque,
 G
buscándote de nuevo, bailando entre robles,
 F
sospecho que animales nocturnos te esconden,
no quieren que me acerque para que vuelva
a decirte

 C     G     F                       C       G    F
que..¿Quién eres tu? nunca había visto algo, tan especial
                       C     G       F
tan infinitamente humano, es de cristal, y se rompe con las
   C      G     F                     C
manos, a lo mejor no podemos ni tocarnos

            
            
Suggest correction
Creating personal tab
Creating personal tab
You can edit any tab online and save it as your Personal.

You can edit, replace or remove any tab part or add personal notes – all changes will be seen only by you.

Personal tabs can be accessed anytime from any device, even offline.
Learn more »
Give kudos to tab author, rate the tab!
1 2 3 4 5
comments
print report bad tab
guest
Wanna post a correction for this tab? Suggest correction