Oops, an error
Loading. Please wait.

Black Magic Woman Tab

version 1
version 1

Whole song

Interactive

439,667 views 372 this week
23 commentsread comments
1 2 3 4 5
accurate
x 66
add to favorites
launch autoscroll
font size
0
reset
how to read this tab
guitar tuner
Autoscroll
slow
fast
+/-
esc
set tempo
stop
Help us to improve Ultimate-Guitar.com Take our survey!
×
"Black Magic Woman"
by Santana
off of Santana's Greatest Hits


[Intro]

e|--------------------------------------------------------------------------------|
B|--8p6~~~~-----------6h8p6~~~~-8----------10--8--6\5~~--8--6--5/3~~--10--8--6\5~~|
G|----------7/9\7~~~~-------------7/9\7~~-----------------------------------------|
D|--------------------------------------------------------------------------------|
A|--------------------------------------------------------------------------------|
E|--------------------------------------------------------------------------------|

e|------------------10------|--------------------------------|----------10--------|
B|--8--6-5--------10--------|--13b15-13-13b15-10-13b15~~~~~--|--13b15~~----13-10--|
G|--------------10----------|--------------------------------|--------------------|
D|------------12------------|--------------------------------|--------------------|
A|----------12--------------|-(0:41)-------------------------|--------------------|
E|--------10----------------|--------------------------------|--------------------|

e|-----------------|-------12-13-12h13p12---------|--------10----------------------|
B|-----------------|-10-13----------------13b15~~-|-13b15~~---13p10----------------|
G|-12b14r12p10\9~~-|------------------------------|-----------------12b14r12p10h12-|
D|-----------------|------------------------------|--------------------------------|
A|-----------------|------------------------------|--------------------------------|
E|-----------------|------------------------------|--------------------------------|

e|--------12-13-13/15~~-15b17r15p13------13~~-19b20~~\\\\10-----------------------|
B|------13----------------------------15------------------------------------------|
G|----14-----------------------------------------------------12b14r12p10----10h12-|
D|--14-------------------------------------------------------------------12-------|
A|--(rake)------------------------------------------------------------------------|
E|--------------------------------------------------------------------------------|

e|-------------------------------------10\--|
B|-------------------------------------10\--|
G|-------------------------------------10\--|
D|----10h12p10----10-------------------12\--|
A|-12----------12----12p10\8-10-8------12\--|
E|--------------------------------10-8/10\--|


************************************************************

h = hammer on
p = pull off
b = bend
r = release bend
\ = slide
~ = let ring

************************************************************
Suggest correction
comments
print report bad tab
23 comments total. Showing first comments.
0 reply
Dead Horse 10 wrote on May 26 2006, 05:52 pm

pretty good tab 5*

+1 reply
Aguabas200 10 wrote on July 4 2006, 06:55 am

This tab is correct but not extremely goodwritten. i mean that it is not easy to the eye. the lines missing are not a problem at figuring the notes but it is kinda ~~~~... I have to say that u did a good job.

-1 reply
sundeepo1 61 wrote on August 3 2006, 11:08 am

not wot he does if you want the real copy from what he says on an interview pm me

guest
You may want to rate the tab now too:
select rating
Please do not post tabs as comments. Select "correction" instead!